PrimaNota.ru - самый крупный в мире бесплатный архив песенных текстов, аккордов, табулатур и нот


Alex Britti - Canzone Fantasma Dopo Donne - таба, видео

Регистрация Запомнить меня
Войти через:  Facebook Google Twitter Vk Yandex Mail.ru

Alex Britti - Canzone Fantasma Dopo Donne - таба, видео

Печатать
Просмотров: 83
		   Ciao.
Alex, dopo 25 secondi dalla fine della canzone Donne (ultima traccia) del
suo Britti 3, ci regala un pezzo strumentale della durata di 3 minuti e
mezzo, a mio avviso molto bello.
L'ho trascritto per 1 minuto e 35 circa, poi riprende il tema iniziale.
In alcuni punti il tempo non è rispettato per alcuni ritardi o anticipi che
Britti usa per dar più colore al pezzo, quindi in questi punti il tempo da
me trascritto non è corretto.

Tuning : E A D G B E  Time Signature: 4/4

 |       |       |       |        |       |       |       |
|--------------------------------|--------------------------------|
|0---1---3---------------3-------|0---1---3---------------3-------|
|0-------------------0-------0---|0-------------------2-------2---|
|----------------0---------------|----------------0---------------|
|--------------------------------|--------------------------------|
|3-----------3-------------------|------------2-------------------|

 |       |       |       |        |       |       |       |
|--------------------------------|3-------------------------------|
|0---1---3---------------3-------|--------3---------------3---3-1h3p|
|--------------------0-----------|----0-------0---------------0---|
|----------------0---------------|--------------------0-----------|
|--------------------------------|--------------------------------|
|------------1-------------------|----------------0---------------|

 |       |       |       |        |       |       |       |
|------------------------0-------|------------------------0-------|
|1---0---1-------------------1---|----0---1-------------------1---|
|--------------------0---------1/|2-----------1-----------------1/|
|----------------2---------------|----------------2---------------|
|------------0-------------------|--------------------0-----------|
|--------------------------------|--------------------------------|

 |       |       |       |        |       |       |       |
|--------------------------------|----0-------------------0-------|
|----0---1-----------1-------1---|3-----1/3-----------3-----------|
|2-----------2---------------0---|----------------------------4/2-|
|----------------2-------2-------|----------------4---------------|
|--------------------------------|------------5-------------------|
|--------------------------------|--------------------------------|

 |       |       |       |        |       |       |       |
|----------------0---------------|------------------------2-------|
|------------0---------------0---|--------0-----------0-------0---|
|0---2/--4---------------4-------|0---2-----------0---------------|
|--------------------------------|------------1-------------------|
|--------------------------------|--------------------------------|
|--------------------0-----------|--------------------------------|

 |       |       |       |        |       |       |       |
|--------------------------------|------------------------0---0---|
|--------0-----------0---3-------|--------------------0-----------|
|0---2-----------0---------2h4h2p|0-----0h2-------2---------------|
|------------0-------------------|----2-------2-------------------|
|--------------------------------|--------------------------------|
|--------------------------------|--------------------------------|

 |       |       |       |        |       |       |       |
|2---3---3-----------------------|5h7-----5---------------5-------|
|------------3-------------------|--------3-----------------------|
|----------------0---------------|6/7-----------------2-----------|
|--------------------2-----------|----------------2---------------|
|------------------------3-------|------------2-------------------|
|--------------------------------|--------------------------------|

 |       |       |       |        |       |       |       |
|5---3---2-------0---------------|----0-----------0---------------|
|3---------------1-----------1---|--------1-------2---------------|
|2---------------0---------------|----------------2---------------|
|2---------------2---------------|2---------------2-----------2---|
|2---------------0-------0-------|----------------2---------------|
|--------------------------------|--------------------------------|

 |       |       |       |        |       |       |       |
|0---2/--4---4-----------4---4/--|2---0-------7-------------------|
|--------------------------------|------------7-----------7-------|
|----2/--4---4-------4-----------|----1-------8-------8-----------|
|--------------------------------|------------9-------------------|
|--------------------------------|--------------------------------|
|----------------0---------------|--------0-----------------------|

 |       |       |       |        |       |       |       |
|9-----------0-------------------|0---------------------------0---|
|----------------------------5---|----0-------------------0-------|
|------------------------4-------|--------4-----------4-----------|
|--------------------6-----------|----------------4---------------|
|----------------4---------------|--------------------------------|
|--------------------------------|------------4-------------------|

 |       |       |       |        |       |       |       |
|2---4-3/4-------------------4---|2---------------------------0---|
|------------------------2---2---|----5-------------------0-------|
|--------------------2-------2---|--------4-----------4-----------|
|----------------2---------------|----------------4---------------|
|------------0-------------------|--------------------------------|
|--------------------------------|------------4-------------------|

 |       |       |       |        |       |       |       |
|2---4--4h5p4p2------------------|0-----------12-9h12p9---9-2h3p2p|
|------------------------5-------|----9-1012-----------12---------|
|----------------------------2---|--------------------------------|
|--------------------2-----------|--------------------------------|
|----------------2---------------|--------------------------------|
|--------------------------------|--------------------------------|

 |       |       |       |        |       |       |       |
|0-5/7-----------7---------2/4---|5---7---------------7-------9---|
|------------5-------5-----------|----------------7-------7-------|
|------------------------4-2/4---|6---8-----------8---------------|
|--------------------------------|------------9-------------------|
|--------------------------------|--------------------------------|
|--------0-----------------------|--------0-----------------------|

 |       |       |       |        |       |       |       |
|3p2-0-------------------0-------|--------------------2---4-3/4---|

|--------------------5-------0---|----------------0---------------|
|----------------4---------------|4-----------4-------------------|
|------------6-------------------|--------4-----------------------|
|--------4-----------------------|--------------------------------|
|--------------------------------|----4---------------------------|

 |       |       |       |        |       |       |       |
|----------------4---2-----------|----------------0---2---4-4h5p4p|
|------------2---2-------5-------|------------0-------------------|
|--------2-------2-----------4---|--------4-----------------------|
|----2---------------------------|----4---------------------------|
|0-------------------------------|--------------------------------|
|--------------------------------|4-------------------------------|

 |       |       |       |        |       |       |       |
|2-------------------0-----------|--------0-----------------------|
|------------5---------------4---|------------4-------4---5-------|
|--------2-------2-----------2---|----2---------4/6---------------|
|----------------------------4---|--------------------------------|
|----2-------------------2-------|----------------------------4---|
|--------------------------------|--------------------------------|

 |       |       |       |        |       |       |       |
|------------------------4-------|----------------4---6---7-------|
|--------5-------5---7-----------|--------5-----------------------|
|----4-------4-------------------|----4-------4-------------------|
|6-----------6-------------------|6-------------------------------|
|----------------------------7---|--------------------------------|
|--------------------------------|----------------------------7---|

 |       |       |       |        |       |       |       |
|--------7-------7/--9---6-------|----------------6---7---9-------|
|--------------------------------|--------7-----------------------|
|----8---8-----------------------|----6---------------------------|
|------------9-------------------|8-----------8-------------------|
|9---------------------------6---|--------------------------------|
|--------------------------------|----------------------------6---|

|       |       |       |        |       |       |       |
|----------------6---7-----------|9---------------9/--11--6---7---|
|--------6-----------------------|7-------7-----------------------|
|----6-------6-------------------|7-----------7-------------------|
|6-------------------------------|6-------------------------------|
|--------------------------------|6-------------------------------|
|--------------------------------|6---6---------------------------|

 |       |       |       |        |       |       |       |
|--------------------4---4-------|------------4---6---7---7-7-----|
|----------------4---------------|--------4---------------7-------|
|------------4-----------4h6p4---|----4-------------------0-------|
|--------4-----------------------|6-----------------------0-------|
|--------------------------------|------------------------6-------|
|----4---------------------------|--------------------------------|

 |       |       |       |        |       |       |       |
|2-2-----5-5-------------3-3-----|3-------0-----------------------|
|3-------3-------3-3-----1-------|1-------1-----------------------|
|0-------2-------2-------2-------|2-------0-----------------------|
|0-------2-------4-------3-------|3-------2-----------------------|
|--------2-------5-------0-------|--------0-----------------------|
|----------------2-------1-------|--------0-----------------------|

     
Добавлено: 14.11.2013
Вам также может быть интересно:
Другие материалы по этой песне:
  • Аккорды и текст

Страница создана 14.11.2013
http://primanota.ru/alex-britti/canzone-fantasma-dopo-donne-chords.htm
Привет, Гость.
Предлагаем пройти революционный курс по гитаре.
Подарок от PrimaNota.Ru, забирай!