PrimaNota.ru - самый крупный в мире бесплатный архив песенных текстов, аккордов, табулатур и нот


Alex Bleeker - These Days - таба, видео

Регистрация Запомнить меня
Войти через:  Facebook Google Twitter Vk Yandex Mail.ru

Alex Bleeker - These Days - таба, видео

Печатать
Просмотров: 67
ALEX BLEEKER - THESE DAYS
ALEX BLEEKER - THESE DAYS EP
2010 GROUP TIGHTENER
TABBED BY TOTTISLAV

Great song by the amazing Alex Bleeker.

Not 100% accurate, but it sounds good. 

Chords used:
G        32000X
G2      355433
C        X32010
C2      X32013
Em      022000

Tab that repeats throughout the whole song:
(lots of 8s - listen to the song to get it right)


  G2                    C        C2          C   G

e|---------------------------------------------------------------------------------|
B|----------7-8-8888888888888888-8-7-5---------------------------------------------|
G|--------7----------------------------7--4-4-4-------4-------------4-------5------|
D|-5--5-5---------------------------------------7-5-7---7-5-----5-7---7-5-7---7-5--|
A|----------------------------------------------------------5h7--------------------|
E|---------------------------------------------------------------------------------|

  G2                    C        C2          C   G

e|-----------------------------------------------------------------------------------------|
B|----------7-8-8888888888888h10-8-7-8-7-5-7-5---------------------------------------------|
G|--------7------------------------------------7--4-4-4-------4-------------4-------5------|
D|-5--5-5-----------------------------------------------7-5-7---7-5-----5-7---7-5-7---7-5--|
A|------------------------------------------------------------------5h7--------------------|
E|-----------------------------------------------------------------------------------------|



G2                                    C
I'm a runnin' away
C                                       
I just won't back down
C                                    C2                            C
cause there's nothin' else to say
G
wish I had it my way

words don't come easy these days

G2                                                      C
No more games left to play
C
I woke up at dawn
C       C2                   C
and I wanted just to stay
G
lost sight of what was right

sleep down the street from you tonight

Em            C               G
But I've got better things to do
Em            C               G
Than waste my time running after you
Em            C               G
But you say you've got better things to
Em            C               G
Love remains cause love is true
Добавлено: 09.09.2013
Другие материалы по этой песне:
  • Аккорды и текст

Страница создана 09.09.2013
http://primanota.ru/alex-bleeker/these-days-chords.htm
Привет, Гость.
Предлагаем пройти революционный курс по гитаре.
Подарок от PrimaNota.Ru, забирай!