PrimaNota.ru - самый крупный в мире бесплатный архив песенных текстов, аккордов, табулатур и нот


Alestorm - Wenches And Mead - таба, видео

Регистрация Запомнить меня
Войти через:  Facebook Google Twitter Vk Yandex Mail.ru

Alestorm - Wenches And Mead - таба, видео

Печатать
Просмотров: 211
riff 1
|-----------------------------------------|
|---------6-5-----------------------------|
|---7-5-7----5-7-7-5---------------5------|
|--5-----------------8-5-5-8-7-7-8---8-7--|
|-----------------------------------------|
|-----------------------------------------|


Riff 2
|-------------------------------------------------------------------|
|-------------------------------------------------------------------|
|--------------5--------------------------------------------5-------|
|--5-x-x-5-7-8---8-7-------5-x-x-5-7-8-7-5-------5-x-x-5-7-8--8-7---|
|--------------------8----------------------8---------------------8-|
|-------------------------------------------------------------------|


riff 2 continued
----------------------|
----------------------|
--7-5-----5-----------|
------8-7---8-7--5----|
----------------8-----|
----------------------|


Repeat riff 1


riff 3
|-------------------------------------------|
|-------------------------------------------|
|--7777777755555555777777775555555577777777-|
|-------------------------------------------|
|-------------------------------------------|
|-------------------------------------------|


repeat riff 2


Riff 4                                     4th time
i am not sure about this part
|-------------------------------|         |------------------------------|
|-------------------------------|  x 3    |------------------------------|
|-------------------------------|         |------------------------------|
|-----8---7--5---3--5--3-0------|         |------8--7---5----------------|
|--------------------------3----|         |-----------------3------3-----|
|--3-3--3---3--3---3--3------3--|         |--3-3---3--3---3---6-5-6--6-5-|


repeat riff 1
then riff 3
then riff 2


Solo
|-5-6-8--8-10-11--10-8-10-----8-10-11--11-13-15--13-11-13--10-10---|
|-------------------------8-8--------------------------------------|
|------------------------------------------------------------------|
|------------------------------------------------------------------|
|------------------------------------------------------------------|
|------------------------------------------------------------------|

--11-10-8--8-10-11--10-8-10------8-10-11--11-13-15--13-11-10-11-10---8-|
-----------------------------8-8-----------------------------------11--|
-----------------------------------------------------------------------|
-----------------------------------------------------------------------|
-----------------------------------------------------------------------|
-----------------------------------------------------------------------|

the solo then repeats but instead of starting with -5-6-8- it just plays -8- one time 
then starts at -8-10-11--10-8-10- and so on

then play riff 4
then riff 2
Добавлено: 25.02.2012
Другие материалы по этой песне:

Страница создана 25.02.2012
http://primanota.ru/alestorm/wenches-and-mead-chords.htm
Привет, Гость.
Предлагаем пройти революционный курс по гитаре.
Подарок от PrimaNota.Ru, забирай!