PrimaNota.ru - самый крупный в мире бесплатный архив песенных текстов, аккордов, табулатур и нот


Alestorm - That Famous Ol Spiced - текст песни, бас-таба, видео

Регистрация Запомнить меня
Войти через:  Facebook Google Twitter Vk Yandex Mail.ru

Alestorm - That Famous Ol Spiced - текст песни, бас-таба, видео

Печатать
Просмотров: 217
Уроки эстрадного вокала в Санкт-Петербурге
Авторы музыки: Christopher Bowes
Авторы текста: Joe McQuade, Christopher Bowes
G|-------------------------------------------------------------------------------------------------|
D|-------------------------------------------------------------------------------------------------|
A|-------------------------------------------------2-----------2-----------------------------------|
E|-------------------------4---4---4---------------------------------------------------------------|
B|-4-----------4-----------------------4-----4-----------------------------2-----2-----2-----2-----|
   1 2 3 4 5 6 1 2 3 4 5 6 1 2 3 4 5 6 1 2 3 4 5 6 1 2 3 4 5 6 1 2 3 4 5 6 1 2 3 4 5 6 1 2 3 4 5 6

G|-------------------------------------------------------------------------------------------------|
D|-------------------------------------------------------------------------------------------------|
A|-------------------------------------------------------------------------------------------------|
E|-------------------------4---4---4---2-----2-----0-----------0---0---0---------------------------|
B|-4-----------4-----------------------------------------------------------2-2-2-2-2-2-2-2-2-2-2-2-|
   1 2 3 4 5 6 1 2 3 4 5 6 1 2 3 4 5 6 1 2 3 4 5 6 1 2 3 4 5 6 1 2 3 4 5 6 1 2 3 4 5 6 1 2 3 4 5 6

0:11
G|--------------------------------------------------------------------------------------------------|
D|o-------------------------------------------------------------------------------------------------|
A|--------------------------------------------------2---2-2-2-2-2---2-2-2-2-------------------------|
E|o-------------------------4---4-4-4-4-------------------------------------------------------------|
B|--4---4-4-4-4-4---4-4-4-4-------------4---4-4-4-4-------------------------2---2-2-2-2-2---2-2-2-2-|
    1 2 3 4 5 6 1 2 3 4 5 6 1 2 3 4 5 6 1 2 3 4 5 6 1 2 3 4 5 6 1 2 3 4 5 6 1 2 3 4 5 6 1 2 3 4 5 6

G|--------------------------------------------------------------------------------------------------|
D|-------------------------------------------------------------------------------------------------o|
A|--------------------------------------------------------------------------------------------------|
E|-------------------------4---4-4-4-4-2---2-2-2-2-0---0-0-0-0-0---0---0---------------------------o|
B|-4---4-4-4-4-4---4-4-4-4-------------------------------------------------2-2-2-2-2-2-2-2-2-2-2-2--|
   1 2 3 4 5 6 1 2 3 4 5 6 1 2 3 4 5 6 1 2 3 4 5 6 1 2 3 4 5 6 1 2 3 4 5 6 1 2 3 4 5 6 1 2 3 4 5 6

0:36
G|-------------------------|
D|-------------------------|
A|-------------------------|
E|-6---4---4-4-2-----------|
B|-------------------2-----|
   1 2 3 4 5 6 1 2 3 4 5 6 

G|-------------------------------------------------------------------------------------------------|
D|-------------------------------------------------------------------------------------------------|
A|-------------------------------------------------------------------------------------------------|
E|---------------------------------------1-2-4-2-1-------------------------2-----1-----2-----1-----|
B|-4---4-4-4-4-4---4-4-4-4-4---4-4-4-4-4-----------4---4-4-4-4-4---4-4-4-4-------------------------|
   1 2 3 4 5 6 1 2 3 4 5 6 1 2 3 4 5 6 1 2 3 4 5 6 1 2 3 4 5 6 1 2 3 4 5 6 1 2 3 4 5 6 1 2 3 4 5 6

G|-------------------------------------------------------------------------------------------------|
D|-------------------------------------------------------------------------------------------------|
A|-----------------------------------------------------------------------------4---4-6-------------|
E|---------------------------------------1-2-4-2-1-----------4---4-6-4-6-7-6-7---7-----------------|
B|-4---4-4-4-4-4---4-4-4-4-4---4-4-4-4-4-----------4-6-7-6-7---7-----------------------------------|
   1 2 3 4 5 6 1 2 3 4 5 6 1 2 3 4 5 6 1 2 3 4 5 6 1 2 3 4 5 6 1 2 3 4 5 6 1 2 3 4 5 6 1 2 3 4 5 6

Verse 0:49
G|-------------------------------------------------------------------------------------------------|
D|-------------------------------------------------------------------------------------------------|
A|-------------------------------------------------2---2-2-2-2-2---2-2-2-2-------------------------|
E|-------------------------------------------------------------------------4---4-4-4-4-4---4-4-4-4-|
B|-4---4-4-4-4-4---4-4-4-4-4---4-4-4-4-4---4-4-4-4-------------------------------------------------|
   1 2 3 4 5 6 1 2 3 4 5 6 1 2 3 4 5 6 1 2 3 4 5 6 1 2 3 4 5 6 1 2 3 4 5 6 1 2 3 4 5 6 1 2 3 4 5 6

G|-------------------------------------------------------------------------------------------------|
D|-------------------------------------------------------------------------------------------------|
A|-------------------------------------------------2---2-2-2-2-2---2-2-2-2-------------------------|
E|---------------------------------------------------------------------------------------1-2-4-2-1-|
B|-4---4-4-4-4-4---4-4-4-4-4---4-4-4-4-4---4-4-4-4-------------------------2---2-2-2-2-4-----------|
   1 2 3 4 5 6 1 2 3 4 5 6 1 2 3 4 5 6 1 2 3 4 5 6 1 2 3 4 5 6 1 2 3 4 5 6 1 2 3 4 5 6 1 2 3 4 5 6

G|-------------------------------------------------------------------------------------------------|
D|-------------------------------------------------------------------------------------------------|
A|-------------------------------------------------2---2-2-2-2-2---2-2-2-2-------------------------|
E|-------------------------------------------------------------------------4---4-4-4-4-4---4-4-4-4-|
B|-4---4-4-4-4-4---4-4-4-4-4---4-4-4-4-4---4-4-4-4-------------------------------------------------|
   1 2 3 4 5 6 1 2 3 4 5 6 1 2 3 4 5 6 1 2 3 4 5 6 1 2 3 4 5 6 1 2 3 4 5 6 1 2 3 4 5 6 1 2 3 4 5 6

G|-------------------------------------------------------------------------------------------------|
D|-------------------------------------------------------------------------------------------------|
A|-------------------------------------------------2---2-2-2-2-2---2-2-2-2-------------------------|
E|-------------------------------------------------------------------------2---2-------------------|
B|-4---4-4-4-4-4---4-4-4-4-4---4-4-4-4-4---4-4-4-4---------------------------------2---4-----------|
   1 2 3 4 5 6 1 2 3 4 5 6 1 2 3 4 5 6 1 2 3 4 5 6 1 2 3 4 5 6 1 2 3 4 5 6 1 2 3 4 5 6 1 2 3 4 5 6

Interlude 1:13
G|-------------------------------------------------------------------------------------------------|
D|-------------------------------------------------------------------------------------------------|
A|-------------------------------------------------------------------------------------------------|
E|-2---2-------------------2---2-------------------2-----------4-----------2---2-------------------|
B|-----------2-4---------------------2-4---------------------------------------------2-4-----------|
   1 2 3 4 5 6 1 2 3 4 5 6 1 2 3 4 5 6 1 2 3 4 5 6 1 2 3 4 5 6 1 2 3 4 5 6 1 2 3 4 5 6 1 2 3 4 5 6

G|-------------------------------------------------------------------------|
D|-------------------------------------------------------------------------|
A|-------------------------------------------------------------------------|
E|-2---2-------------------2-----------4-----------------------------------|
B|-----------2-4-----------------------------------4-----------------------|
   1 2 3 4 5 6 1 2 3 4 5 6 1 2 3 4 5 6 1 2 3 4 5 6 1 2 3 4 5 6 1 2 3 4 5 6 

Verse 1:23
G|-------------------------------------------------------------------------------------------------|
D|-------------------------------------------------------------------------------------------------|
A|-------------------------------------------------2---2-2-2-2-2---2-2-2-2-------------------------|
E|-------------------------------------------------------------------------4---4-4-4-4-4---4-4-4-4-|
B|-4---4-4-4-4-4---4-4-4-4-4---4-4-4-4-4---4-4-4-4-------------------------------------------------|
   1 2 3 4 5 6 1 2 3 4 5 6 1 2 3 4 5 6 1 2 3 4 5 6 1 2 3 4 5 6 1 2 3 4 5 6 1 2 3 4 5 6 1 2 3 4 5 6

G|-------------------------------------------------------------------------------------------------|
D|-------------------------------------------------------------------------------------------------|
A|-------------------------------------------------2---2-2-2-2-2---2-2-2-2-------------------------|
E|---------------------------------------------------------------------------------------1-2-4-2-1-|
B|-4---4-4-4-4-4---4-4-4-4-4---4-4-4-4-4---4-4-4-4-------------------------2---2-2-2-2-4-----------|
   1 2 3 4 5 6 1 2 3 4 5 6 1 2 3 4 5 6 1 2 3 4 5 6 1 2 3 4 5 6 1 2 3 4 5 6 1 2 3 4 5 6 1 2 3 4 5 6

G|-------------------------------------------------------------------------------------------------|
D|-------------------------------------------------------------------------------------------------|
A|-------------------------------------------------2---2-2-2-2-2---2-2-2-2-------------------------|
E|-------------------------------------------------------------------------4---4-4-4-4-4---4-4-4-4-|
B|-4---4-4-4-4-4---4-4-4-4-4---4-4-4-4-4---4-4-4-4-------------------------------------------------|
   1 2 3 4 5 6 1 2 3 4 5 6 1 2 3 4 5 6 1 2 3 4 5 6 1 2 3 4 5 6 1 2 3 4 5 6 1 2 3 4 5 6 1 2 3 4 5 6

G|-------------------------------------------------------------------------------------------------|
D|-------------------------------------------------------------------------------------------------|
A|-------------------------------------------------2---2-2-2-2-2---2-2-2-2-------------------------|
E|-------------------------------------------------------------------------2---2-------------------|
B|-4---4-4-4-4-4---4-4-4-4-4---4-4-4-4-4---4-4-4-4---------------------------------2---4-----------|
   1 2 3 4 5 6 1 2 3 4 5 6 1 2 3 4 5 6 1 2 3 4 5 6 1 2 3 4 5 6 1 2 3 4 5 6 1 2 3 4 5 6 1 2 3 4 5 6

Chorus 1:47
G|--------------------------------------------------------------------------------------------------|
D|o------------------------------------------------------------------------------------------------o|
A|--------------------------------------------------------------------------------------------------|
E|o-------------------------2-----------2---2---2---4-----------4---4---4---6---4---2--------------o|
B|--4-----------4---4---4---------------------------------------------------------------4-----2-----|
    1 2 3 4 5 6 1 2 3 4 5 6 1 2 3 4 5 6 1 2 3 4 5 6 1 2 3 4 5 6 1 2 3 4 5 6 1 2 3 4 5 6 1 2 3 4 5 6

Interlude 1:59
G|--------------------------------------------------------------------------------------------------|
D|o-------------------------------------------------------------------------------------------------|
A|--------------------------------------------------2---2-2-2-2-2---2-2-2-2-------------------------|
E|o-------------------------4---4-4-4-4-------------------------------------------------------------|
B|--4---4-4-4-4-4---4-4-4-4-------------4---4-4-4-4-------------------------2---2-2-2-2-2---2-2-2-2-|
    1 2 3 4 5 6 1 2 3 4 5 6 1 2 3 4 5 6 1 2 3 4 5 6 1 2 3 4 5 6 1 2 3 4 5 6 1 2 3 4 5 6 1 2 3 4 5 6

G|--------------------------------------------------------------------------------------------------|
D|-------------------------------------------------------------------------------------------------o|
A|--------------------------------------------------------------------------------------------------|
E|-------------------------4---4-4-4-4-2---2-2-2-2-0---0-0-0-0-0---0---0---------------------------o|
B|-4---4-4-4-4-4---4-4-4-4-------------------------------------------------2-2-2-2-2-2-2-2-2-2-2-2--|
   1 2 3 4 5 6 1 2 3 4 5 6 1 2 3 4 5 6 1 2 3 4 5 6 1 2 3 4 5 6 1 2 3 4 5 6 1 2 3 4 5 6 1 2 3 4 5 6

G|-------------------------------------------------------------------------|
D|-------------------------------------------------------------------------|
A|-------------------------------------------------------------------------|
E|-6---4---4-4-2-----------------------------------6---4-------------------|
B|-------------------2-----4---4-4-4-4-4---4-4-4-4---------2---4-----------|
   1 2 3 4 5 6 1 2 3 4 5 6 1 2 3 4 5 6 1 2 3 4 5 6 1 2 3 4 5 6 1 2 3 4 5 6

Verse 2:28
G|-------------------------------------------------------------------------------------------------|
D|-------------------------------------------------------------------------------------------------|
A|-------------------------------------------------2---2-2-2-2-2---2-2-2-2-------------------------|
E|-------------------------------------------------------------------------4---4-4-4-4-4---4-4-4-4-|
B|-4---4-4-4-4-4---4-4-4-4-4---4-4-4-4-4---4-4-4-4-------------------------------------------------|
   1 2 3 4 5 6 1 2 3 4 5 6 1 2 3 4 5 6 1 2 3 4 5 6 1 2 3 4 5 6 1 2 3 4 5 6 1 2 3 4 5 6 1 2 3 4 5 6

G|-------------------------------------------------------------------------------------------------|
D|-------------------------------------------------------------------------------------------------|
A|-------------------------------------------------2---2-2-2-2-2---2-2-2-2-------------------------|
E|---------------------------------------------------------------------------------------1-2-4-2-1-|
B|-4---4-4-4-4-4---4-4-4-4-4---4-4-4-4-4---4-4-4-4-------------------------2---2-2-2-2-4-----------|
   1 2 3 4 5 6 1 2 3 4 5 6 1 2 3 4 5 6 1 2 3 4 5 6 1 2 3 4 5 6 1 2 3 4 5 6 1 2 3 4 5 6 1 2 3 4 5 6

G|-------------------------------------------------------------------------------------------------|
D|-------------------------------------------------------------------------------------------------|
A|-------------------------------------------------2---2-2-2-2-2---2-2-2-2-------------------------|
E|-------------------------------------------------------------------------4---4-4-4-4-4---4-4-4-4-|
B|-4---4-4-4-4-4---4-4-4-4-4---4-4-4-4-4---4-4-4-4-------------------------------------------------|
   1 2 3 4 5 6 1 2 3 4 5 6 1 2 3 4 5 6 1 2 3 4 5 6 1 2 3 4 5 6 1 2 3 4 5 6 1 2 3 4 5 6 1 2 3 4 5 6

G|-------------------------------------------------------------------------------------------------|
D|-------------------------------------------------------------------------------------------------|
A|-------------------------------------------------2---2-2-2-2-2---2-2-2-2-------------------------|
E|-------------------------------------------------------------------------2---2-------------------|
B|-4---4-4-4-4-4---4-4-4-4-4---4-4-4-4-4---4-4-4-4---------------------------------2---4-----------|
   1 2 3 4 5 6 1 2 3 4 5 6 1 2 3 4 5 6 1 2 3 4 5 6 1 2 3 4 5 6 1 2 3 4 5 6 1 2 3 4 5 6 1 2 3 4 5 6

Chorus 2:52
G|--------------------------------------------------------------------------------------------------|
D|o------------------------------------------------------------------------------------------------o|
A|--------------------------------------------------------------------------------------------------|
E|o-------------------------2-----------2---2---2---4-----------4---4---4---6---4---2--------------o|
B|--4-----------4---4---4---------------------------------------------------------------4-----2-----|
    1 2 3 4 5 6 1 2 3 4 5 6 1 2 3 4 5 6 1 2 3 4 5 6 1 2 3 4 5 6 1 2 3 4 5 6 1 2 3 4 5 6 1 2 3 4 5 6

Solo
G|--------------------------------------------------------------------------------------------------|
D|o-------------------------------------------------------------------------------------------------|
A|--------------------------------------------------2---2-2-2-2-2---2-2-2-2-------------------------|
E|o-------------------------4---4-4-4-4-------------------------------------------------------------|
B|--4---4-4-4-4-4---4-4-4-4-------------4---4-4-4-4-------------------------2---2-2-2-2-2---2-2-2-2-|
    1 2 3 4 5 6 1 2 3 4 5 6 1 2 3 4 5 6 1 2 3 4 5 6 1 2 3 4 5 6 1 2 3 4 5 6 1 2 3 4 5 6 1 2 3 4 5 6

G|--------------------------------------------------------------------------------------------------|
D|-------------------------------------------------------------------------------------------------o|
A|--------------------------------------------------------------------------------------------------|
E|-------------------------4---4-4-4-4-2---2-2-2-2-0---0-0-0-0-0---0-0-0-0-------------------------o|
B|-4---4-4-4-4-4---4-4-4-4-------------------------------------------------2-2-2-2-2-2-2-2-2-2-2-2--|
   1 2 3 4 5 6 1 2 3 4 5 6 1 2 3 4 5 6 1 2 3 4 5 6 1 2 3 4 5 6 1 2 3 4 5 6 1 2 3 4 5 6 1 2 3 4 5 6

Bridge 3:28
G|-------------------------------------------------------------------------------------------------|
D|-------------------------------------------------------------------------------------------------|
A|-------------------------2-----------------------------------------------------------------------|
E|-0-----------------------------------------------2-----------------------4-----------------------|
B|-------------------------------------------------------------------------------------------------|
   1 2 3 4 5 6 1 2 3 4 5 6 1 2 3 4 5 6 1 2 3 4 5 6 1 2 3 4 5 6 1 2 3 4 5 6 1 2 3 4 5 6 1 2 3 4 5 6

G|-------------------------------------------------------------------------------------------------|
D|-------------------------------------------------------------------------------------------------|
A|-------------------------2-----------------------1-----------------------------------------------|
E|-0-----------------------------------------------------------------------------------------------|
B|-------------------------------------------------------------------------------------------------|
   1 2 3 4 5 6 1 2 3 4 5 6 1 2 3 4 5 6 1 2 3 4 5 6 1 2 3 4 5 6 1 2 3 4 5 6 1 2 3 4 5 6 1 2 3 4 5 6

Chorus 3:40
G|--------------------------------------------------------------------------------------------------|
D|o------------------------------------------------------------------------------------------------o|
A|--------------------------------------------------------------------------------------------------|
E|o-------------------------2-----------2---2---2---4-----------4---4---4---6---4---2--------------o|
B|--4-----------4---4---4---------------------------------------------------------------4-----2-----|
    1 2 3 4 5 6 1 2 3 4 5 6 1 2 3 4 5 6 1 2 3 4 5 6 1 2 3 4 5 6 1 2 3 4 5 6 1 2 3 4 5 6 1 2 3 4 5 6

3:51 x5 Twice w/o Vocals 3x w/ vocals
G|---------------------------------------------------------------------------------------------------|
D|o-------------------------4----------------------6------------------------8---6---4---------------o|
A|--6-----------------------------------4-----------------------6-----------------------6---4---4----|
E|o-------------6-----------------------------------------------------------------------------------o|
B|---------------------------------------------------------------------------------------------------|
    1 2 3 4 5 6 1 2 3 4 5 6 1 2 3 4 5 6 1 2 3 4 5 6 1 2 3 4 5 6 1 2 3 4 5 6 1 2 3 4 5 6 1 2 3 4 5 6

4:28
G|--------------------------------------------------------------------(Ritardando)(Fermata on the 4)
D|-------------------------4----------------------6------------------------8---6---4---------------|
A|-6-----------------------------------4-----------------------6-----------------------6-----------|
E|-------------6-----------------------------------------------------------------------------------|
B|-------------------------------------------------------------------------------------------------|
   1 2 3 4 5 6 1 2 3 4 5 6 1 2 3 4 5 6 1 2 3 4 5 6 1 2 3 4 5 6 1 2 3 4 5 6 1 2 3 4 5 6 1 2 3 4 5 6
Tabbed by David Vucko
Добавлено: 23.04.2014
Другие материалы по этой песне:

Страница создана 28.06.2012
http://primanota.ru/alestorm/that-famous-ol-spiced-chords.htm
Привет, Гость.
Предлагаем пройти революционный курс по гитаре.
Подарок от PrimaNota.Ru, забирай!