PrimaNota.ru - самый крупный в мире бесплатный архив песенных текстов, аккордов, табулатур и нот


Alestorm - Rum - текст песни, таба, видео

Регистрация Запомнить меня
Войти через:  Facebook Google Twitter Vk Yandex Mail.ru

Alestorm - Rum - текст песни, таба, видео

Печатать
Просмотров: 166
-------------------------------------------------------------------------------
                             RUM - Alestorm
-------------------------------------------------------------------------------
Tabbed by: Jezdziec666
E-mail: michalczopor1@gmail.com

Tuning: Standard

Quite easy and cool song, didn't find it anywhere so: here you go and enjoy being a pirate! :)


Intro and "Yar, Yar, Yar, AHOIII"

e|---------------------------------------------------------------------------|
B|---------------------------------------------------------------------------|
G|---------------------------------------------------------------------------| #1
D|-------------------------------------------1-1-1-1-1-1---------------------|
A|-1-1---4p3-----1-1---4p3----1-1---4p3--------------------------------------|
E|------------4-------------4------------4-----------------------------------|

e|---------------------------------------------------------------------------|
B|---------------------------------------------------------------------------|
G|---------------------------------------------------------------------------| #2
D|------------------------------3p1-----1------------------------------------|
A|-1-1---4p3-----1-1---4p3-----------4-----4--3h4h3--1h3h1-----1-------------|
E|------------4-------------4-------------------------------4----------------|

Ending of Intro and "Yar, Yar, Yar, AHOIII" 

e|---------------------------------------------------------------------------|
B|---------------------------------------------------------------------------|
G|---10---8------------------------------------------------------------------| #3
D|---10---8---6---8----------------------------------------------------------|
A|---8----6---6---8----------------------------------------------------------|
E|------------4---6----------------------------------------------------------|



Verse:

e|---------------------------------------------------------------------------|
B|---------------------------------------------------------------------------|
G|-------6------8---------6---10-10-10-10-10-8-10----------------------------|
D|---8---6---6--8-----8---6---8--8--8--8--8--8--8----------------------------|
A|---8---4---6--6-----8---4---8--8--8--8--8--6--8---slide down---------------|
E|---6-------4--------6-----------------------------slide down---------------|

e|-----------------------------------------------------------------------------------------|
B|-----------------------------------------------------------------------------------------|
G|--------------------------6---------6--------------------------------8---------8---------|
D|---8----------8-----------6---------6-----------6---------6----------8---------8---------|
A|---8----------8-----------4-4-4-4-4-4-4-4-4-4---6---------6----------6-6-6-6-6-6-6-6-6-6-|
E|---6-6-6-6-6--6-6-6-6-6-------------------------4-4-4-4-4-4-4-4-4-4----------------------|

e|---------------------------------------------------|
B|---------------------------------------------------|
G|----10-10-10-10-10-8-10----------------------------|
D|----8--8--8--8--8--8--8----------------------------|
A|----8--8--8--8--8--6--8---slide down---------------|
E|--------------------------slide down---------------|


After Verse 'Solo"

e|---------------------------------------------------------------------------|
B|---------------------------------------------------------------------------|
G|--13h14h15--13---------------------------------13h14h15--13----------------|
D|----------------15---15h16--15--13--15----------------------15--13---------|
A|---------------------------------------13----------------------------------|
E|---------------------------------------------------------------------------|



"... Rum is the power, rum is the key.......sets us free!"
e|---------------------------------------------------------------------------|
B|---------------------------------------------------------------------------|
G|--11--11--11--11--11--11---8--8--8--8--8--8---10--10--10--10--8--6--10-----|
D|--11--11--11--11--11--11---8--8--8--8--8--8---10--10--10--10--8--6--10-----|
A|--9---9---9---9---9---9----6--6--6--6--6--6---8---8---8---8---6--4--8------|
E|---------------------------------------------------------------------------|



Now again intro and at 2:22 instead #3 part of intro

It might be a bit different (just easier, drunk version)
e|-------------------------------------------------------------------------------------|
B|-------------------------------------------------------------------------------------|
G|--6--8--10--(listen to the song how many times repeat each)-10---10-10-8--10-12--10--|2nd part 3 frets higher
D|--6--8--10--------------------------------------------------10---10-10-8--10-12--10--|
A|--4--6--8---------------------------------------------------8----8--8--6--8--10--8---|
E|-------------------------------------------------------------------------------------|

e|---------------------------------------------------------------------------|
B|---------------------------------------------------------------------------|
G|-9--8---7--6--5--4---------------------------------------------------------|
D|-9--8---7--6--5--4--------and again intro----------------------------------|
A|-11-10--9--8--7--6---------------------------------------------------------|
E|---------------------------------------------------------------------------|


If you want to change anything feel free to copy that and use as own.

************************************

| /   slide up
| \   slide down
| h   hammer-on
| p   pull-off

************************************
Добавлено: 08.08.2015
Другие материалы по этой песне:

Страница создана 22.04.2012
http://primanota.ru/alestorm/rum-chords.htm
Привет, Гость.
Предлагаем пройти революционный курс по гитаре.
Подарок от PrimaNota.Ru, забирай!