PrimaNota.ru - самый крупный в мире бесплатный архив песенных текстов, аккордов, табулатур и нот


Alesana - What Comes Around Goes Around - таба, видео

Регистрация Запомнить меня
Войти через:  Facebook Google Twitter Vk Yandex Mail.ru

Alesana - What Comes Around Goes Around - таба, видео

Печатать
Просмотров: 205
Уроки эстрадного вокала в Санкт-Петербурге
Alesana - What Goes Around Comes Around

Edited Tabs by Sebastian The Silent Killer

Drop D (DADGBE)


Intro
Lead Guitar
E|--------------------------------------------------------------|
B|---10-8-10----------------------------------------------------|
G|------------9-\-7-7-------------------------------------------|
D|--------------------------------------------------------------|
A|--------------------------------------------------------------|
D|--------------------------------------------------------------|
                                                                (x3)
E|--------------------------------------------------------------|
B|---10-8-10-10-8-10-8-10---------------------------------------|
G|--------------------------------------------------------------|
D|--------------------------------------------------------------|
A|--------------------------------------------------------------|
D|--------------------------------------------------------------|
                                                                    (x1)


Intro
Rhythm Guitar (Comes In On The Second Time)

E|---------------------------------------------------------------------|
B|---------------------------------------------------------------------|
G|---------------------------------------------------------------------|(x2)
D|77777777--10-10-10-10-10-10-10-10--55555555--12-12-12-12-12-12-12-12-|
A|77777777--10-10-10-10-10-10-10-10--55555555--12-12-12-12-12-12-12-12-|
D|77777777--10-10-10-10-10-10-10-10--55555555--12-12-12-12-12-12-12-12-|


Verse 1

E|--------------------------------------------------------------|
B|--------------------------------------------------------------|
G|--------------------------------------------------------------|
D|--10--X--X--X--X--X--X--X---7-5----7-X-X-X-X-10-X-X-X-X-5-7-5-|
A|--10--X--X--X--X--X--X--X---7-5----7-X-X-X-X-10-X-X-X-X-5-7-5-|
D|--10--X--X--X--X--X--X--X---7-5----7-X-X-X-X-10-X-X-X-X-5-7-5-|


Pre-chorus

E|--------------------------------------------------------------|
B|--------------------5-----------------------------------------|
G|---------5-------------7-7--4---------------------------------|
D|--5-\-7-----6-\-7---------------7-5-7--4----------------------|
A|--------------------------------------------------------------|
D|--------------------------------------------------------------|
                                                                (x2)







E|--------------------------------------------------------------|
B|--------------------------------------------------------------|
G|--------------------------------------------------------------|
D|---7-7-----10-10-------5-5-------12-12-12-12-12-12-12---------|
A|---7-7-----10-10-------5-5-------12-12-12-12-12-12-12---------|
D|---7-7-----10-10-------5-5-------12-12-12-12-12-12-12---------|   (x2)


Chorus

E|----------------------------------------------------------|
B|----------------------------------------------------------| (x4)
G|------------7---------------------------------------------|
D|------5--7------7--5--7-4--------12-12-12-12-12-12-12-12--|
A|---7-----------------------------12-12-12-12-12-12-12-12--|
D|---------------------------------12-12-12-12-12-12-12-12--|
                                   ***********************

Breakdown:

E|----------------------------------------|
B|----------------------------------------|
G|----------------------------------------| (x2)
D|--0--000-000--000-000--000-00--8888-5555|
A|--0--000-000--000-000--000-00--8888-5555|
D|--0--000-000--000-000--000-00--8888-5555|
    ***************************

E|----------------------------------------|
B|----------------------------------------|
G|----------------------------------------|
D|----10-10-10-10--8-10-8-10--------------|
A|----10-10-10-10--8-10-8-10--------------|
D|----10-10-10-10--8-10-8-10--------------|


*Repeat everything from verse 1.
 Then play this lead part or play the breakdown part
E|--------------------------------------------------------------|
B|---10-8-10----------------------------------------------------|
G|------------9-\-7-7-------------------------------------------|
D|--------------------------------------------------------------|
A|--------------------------------------------------------------|
D|--------------------------------------------------------------| (x3)

E|--------------------------------------------------------------|
B|---10-8-10-10-8-10-8-10---------------------------------------|
G|--------------------------------------------------------------|
D|--------------------------------------------------------------|
A|--------------------------------------------------------------|
D|--------------------------------------------------------------| (x1)






E|----------------------------|
B|----------------------------|
G|----------------------------|
D|---10--12--2-2--------------|
A|---10--12--2-2--------------|
D|---10--12--2-2--------------| (x4)
             * *
E|---------------------------------------------------------------|
B|---------------------------------------------------------------| (x2)
G|---------------------------------------------------------------|
D|---2--222--222--222--------------------------------------------|
A|---2--222--222--222--------------------------------------------|
D|---2--222--222--222--------------------------------------------|

E|---------------------------------------------------------------|
B|---------------------------------------------------------------| (x2)
G|---------------------------------------------------------------|
D|---2--222--222--222--------------------------------------------|
A|---2--222--222--222--------------------------------------------|
D|---2--222--222--222--------------------------------------------|
     ****************


e|----7-----------------------|
B|--------10--8--7------------|
G|--------------------9-------| (x3)
D|----------------------------|
A|----------------------------|
D|----------------------------|

e|-----7-----------7----------|
B|---------10--8------10--8---|
G|----------------------------|   (x1)
D|----------------------------|
A|----------------------------|
D|----------------------------|

THE End. . . .


| / - Slide up
| \ - Slide down
| h - Hammer-on
| p - Pull-off
| ~ - Vibrato
| + - Harmonic
| x - Mute note
| * - Palm mute
Добавлено: 17.08.2013
Другие материалы по этой песне:
  • Аккорды и текст

Страница создана 17.08.2013
http://primanota.ru/alesana/what-comes-around-goes-around-chords.htm
Привет, Гость.
Предлагаем пройти революционный курс по гитаре.
Подарок от PrimaNota.Ru, забирай!