PrimaNota.ru - самый крупный в мире бесплатный архив песенных текстов, аккордов, табулатур и нот


Alesana - Vestige - текст песни, таба, видео

Регистрация Запомнить меня
Войти через:  Facebook Google Twitter Vk Yandex Mail.ru

Alesana - Vestige - текст песни, таба, видео

Печатать
Просмотров: 210
Please rate and/or leave your feedback.

Song: Vestige
Band: Alesana
Album: A Place Where The Sun Is Silent
Tabbed by: Mr. Picky
Tuning: Drop D

This may not be 100% accurate since the song is in piano.
But this should help you with playing it on guitar.
You can actually just strum the chords if you want to make
an acoustic version of it. Have fun!

Verse:
Played slowly
e||-------------------------------------------------------||
B||-------------------------------------------------------||    _
G||-------------------------------------------------------|| \/ _|
D||-------7~-8~-5~----3~-7~-3~-------7~-------0~----------|| /\|_
A||----5~----------3~----------2~-5~----5~-1~----0~-4~----||
D||-------------------------------------------------------||

Chorus:
e||---------------------------------------------------------||
B||---------------------------------------------------------||     _
G||-------77-----77-----55-----55-----44-----44----3---5----|| \/  _|
D||-------77-----77-----55-----55-----55-----55---3---5-----|| /\ |_
A||----5~----(5)-----3~----(3)-----2~----(2)-----1---3------||
D||---------------------------------------------------------||

Verse:
e||-------------------------------------------------------||
B||-------------------------------------------------------||    _
G||-------------------------------------------------------|| \/ _|
D||-------7~-8~-5~----3~-7~-3~-------7~-------0~----------|| /\|_
A||----5~----------3~----------2~-5~----5~-1~----0~-4~----||
D||-------------------------------------------------------||

Chorus:
e||---------------------------------------------------------||
B||---------------------------------------------------------||     _
G||-------77-----77-----55-----55-----44-----44----3---5----|| \/  _|
D||-------77-----77-----55-----55-----55-----55---3---5-----|| /\ |_
A||----5~----(5)-----3~----(3)-----2~----(2)-----1---3------||
D||---------------------------------------------------------||

Bridge:
(there's short break before this is played.
I don't know how to play it on guitar.)
e||---------------------------------------------------||
B||---------------------------------6865--------9~----||    _
G||-------99---99---99-------------7-----------9------|| \/ _|
D||-------------------------------7-----------9-------|| /\|_
A||----67----6----5----3~----5~----------7~-----------||
D||----67----6----5----3~-----------------------------||

Chorus:
e||---------------------------------------------------------||
B||---------------------------------------------------------||    
G||-------77-----77-----55-----55-----44-----44----3---5----|| \/ |_|
D||-------77-----77-----55-----55-----55-----55---3---5-----|| /\   |
A||----5~----(5)-----3~----(3)-----2~----(2)-----1---3------||
D||---------------------------------------------------------||

Outro:
e||-------------------------------------------------------||
B||-------------------------------------------------------||    _
G||-------------------------------------------------------|| \/ _|
D||-------7~-8~-5~----3~-7~-3~-------7~-------0~----------|| /\|_
A||----5~----------3~----------2~-5~----5~-1~----0~-4~----||
D||-------------------------------------------------------||

-- END --
Добавлено: 17.07.2012
Другие материалы по этой песне:

Страница создана 12.04.2012
http://primanota.ru/alesana/vestige-chords.htm
Привет, Гость.
Предлагаем пройти революционный курс по гитаре.
Подарок от PrimaNota.Ru, забирай!