PrimaNota.ru - самый крупный в мире бесплатный архив песенных текстов, аккордов, табулатур и нот


Alesana - The Thespian - текст песни, таба, бас-таба, видео

Регистрация Запомнить меня
Войти через:  Facebook Google Twitter Vk Yandex Mail.ru

Alesana - The Thespian - текст песни, таба, бас-таба, видео

Печатать
Просмотров: 390
The Thespian (SOLO!) - Alesana

This is pretty accurate. You may use it if you're making a tab for the full version of 
song, but PLEASE put some kind of credit.
<3Krysta.

EMAIL: LULZITSKRYSTA@LIVE.COM

DROP D.

2:14-
e|--------------------------------------------------------------------------|
B|-----13-----------------------12/13---------------------------------------|
G|-------14--12-12h14-12-10----------14----12-10-12-12/14-------------------|
D|10/12---------------------------------------------------------------------|
A|--------------------------------------------------------------------------|
E|--------------------------------------------------------------------------|

2:23-32.
e|--------------------------------------------------------------------------|
B|--------------------------------------------------------------------------|
G|-----10h12-10h12-12/14-14-14-14/15-15-14-12-------------12----------------|
D|10h12---------------------------------------15-12-/12-15--15-14-----------|
A|---------------------------------------------------------------15\--------|
E|--------------------------------------------------------------------------|
Добавлено: 17.04.2012
Другие материалы по этой песне:

Страница создана 01.04.2012
http://primanota.ru/alesana/the-thespian-chords.htm
Привет, Гость.
Предлагаем пройти революционный курс по гитаре.
Подарок от PrimaNota.Ru, забирай!