PrimaNota.ru - самый крупный в мире бесплатный архив песенных текстов, аккордов, табулатур и нот


Alesana - The Temptress - таба, бас-таба, видео

Регистрация Запомнить меня
Войти через:  Facebook Google Twitter Vk Yandex Mail.ru

Alesana - The Temptress - таба, бас-таба, видео

Печатать
Просмотров: 234
Уроки эстрадного вокала в Санкт-Петербурге
Please rate and/or leave your feedback.

Song: The Temptress
Band: Alesana
Album: A Place Where The Sun Is Silent
Tabbed by: Mr. Picky
Tuning: Drop D

Verse:
e||------------------------------------------||
B||------------------------------------------||    _
G||-----------------------7-7-7-7-7-7-7-7----|| \/ _|
D||----8-8-8-8-8-8-8-8----7-7-7-7-7-7-7-7----|| /\ _|
A||----8-8-8-8-8-8-8-8----5-5-5-5-5-5-5-5----||
D||----8-8-8-8-8-8-8-8-----------------------||

Prechorus:
e||----------------------------||
B||----------------------------||
G||----------5~----------3~----||
D||----0~----5~----3~----3~----||
A||----0~----3~----3~----1~----||
D||----0~----------3~----------||

Chorus:
e||-------------------------------------------||
B||-------------------------------------------||     _
G||-------------33333333----------55555555----|| \/  _|
D||----77777777-33333333-33333333-55555555----|| /\ |_
A||----77777777-11111111-33333333-33333333----||
D||----77777777----------33333333-------------||

e||-----------------------||
B||-----------------------||
G||-----------------------||
D||----8-8-8-8-8-8-8-8----|| (played quietly)
A||----8-8-8-8-8-8-8-8----||
D||----8-8-8-8-8-8-8-8----||

Verse:
e||------------------------------------------||
B||------------------------------------------||     _
G||-----------------------7-7-7-7-7-7-7-7----|| \/  _|
D||----8-8-8-8-8-8-8-8----7-7-7-7-7-7-7-7----|| /\ |_
A||----8-8-8-8-8-8-8-8----5-5-5-5-5-5-5-5----|| 
D||----8-8-8-8-8-8-8-8-----------------------||

Prechorus:
e||----------------------------||
B||----------------------------||
G||----------5~----------3~----||
D||----0~----5~----3~----3~----||
A||----0~----3~----3~----1~----||
D||----0~----------3~----------||

Chorus:
e||-------------------------------------------||
B||-------------------------------------------||    
G||-------------33333333----------55555555----|| \/ |_|
D||----77777777-33333333-33333333-55555555----|| /\   |
A||----77777777-11111111-33333333-33333333----||
D||----77777777----------33333333-------------||
                                        .. (palm mute only on 2nd loop)
e||---------||
B||---------||
G||---------||
D||----0~---||
A||----0~---||
D||----0~---||

Bridge:
Guitar 1
e||-----------------------------------------------------||
B||-----------------------------------------------------||
G||-----------------------------------------------------||
D||-------7-7h8--7-------------3-2~-2h3-2p0-0~-2h3------||--
A||----5-8-8----8-8--1~----3-5---------------------4----||  |     _
D||-----------------------------------------------------||  | \/  _|
Guitar 2                                                    | /\ |_
e||-----------------------------------------------------||  |
B||-----------------------------------------------------||  |
G||----7~------------3~----5~----------------------6~---||--
D||----7~------------3~----5~---------------7~-----7~---||
A||----5~------------1~----3~---------------7~-----4~---||
D||-----------------------------------------7~----------||

Bridge continued...
e||----------------------------------------------||
B||----------------------------------------------||     _
G||----77777777--33333333--55555555------6666----|| \/  _|
D||----77777777--33333333--55555555--77777777----|| /\ |_
A||----55555555--11111111--33333333--77774444----||
D||----------------------------------7777--------||

Breakdown:
e||--------------------------------------||
B||--------------------------------------||     _
G||----------------------55555555--------|| \/  _| (I can't figure out the
D||----00000000-(8)~-----55555555-(7)~---|| /\ |_   lead part, you can just
A||----00000000-(8)~-----33333333-(7)~---||         strum the 8 and 7 if you
D||----00000000-(8)~--------------(7)~---||         want)

(short lead part)

e||------------------------------------||
B||------------------------------------||
G||------------------------------------||
D||----0-------8--00000000-00000000----||
A||----0/slide/8--00000000-00000000----||
D||----0-------8--00000000-00000000----||

Soft Chorus:
e||-------------------------------------||
B||-------------------------------------||    
G||----22222222-33333333-55555555-5~----|| (Strum softly)
D||----22222222-33333333-33333333-5~----||
A||----00000000-11111111-33333333-3~----||
D||----------------------33333333-------||

Chorus:
e||-------------------------------------------||
B||-------------------------------------------||     _
G||-------------33333333----------55555555----|| \/  _|
D||----77777777-33333333-33333333-55555555----|| /\  _|
A||----77777777-11111111-33333333-33333333----||
D||----77777777----------33333333-------------||
                                        .. (palm mute only on 2nd loop)

e||-------------------------------------------------------||
B||-------------------------------------------------------||
G||-------------33333333----------55555555-55555555-------||
D||----77777777-33333333-33333333-55555555-55555555-0~----||
A||----77777777-11111111-33333333-33333333-33333333-0~----||
D||----77777777----------33333333-------------------0~----||

-- END --
Добавлено: 22.04.2012
Другие материалы по этой песне:

Страница создана 22.04.2012
http://primanota.ru/alesana/the-temptress-chords.htm
Привет, Гость.
Предлагаем пройти революционный курс по гитаре.
Подарок от PrimaNota.Ru, забирай!