PrimaNota.ru - самый крупный в мире бесплатный архив песенных текстов, аккордов, табулатур и нот


Alesana - The Lover - текст песни, таба, бас-таба, видео

Регистрация Запомнить меня
Войти через:  Facebook Google Twitter Vk Yandex Mail.ru

Alesana - The Lover - текст песни, таба, бас-таба, видео

Печатать
Просмотров: 161
---------------------------------------------------------------------------------------------
                                     The Lover - Alesana
---------------------------------------------------------------------------------------------
Tabbed by: dante.adurte16
E-mail: cabalisticdesigns@gmail.com

**This song is relatively simple. It's mostly just a lot of repeating things, but it's still
fun to play. I saw the many requests for this song and was surprised to see that there was no 
tab, other than bass, that wasn't PRO. So I thought I would tab it out for you ultimate 
guitarists.**

**As usual for my tabs, this is a mix of the lead and rhythm guitars. I do this because I play
solo, instead of having a buddy play with me. Personally, I think it sounds better this way if 
you play solo.**

Tuning: DADGBE
Metronome: 100

Verse 1:
e|------------------------------------------------------------------------------------------|
B|------------------------------------------------------------------------------------------|
G|------------------------------------------------------------------------------------------|
D|--9--12--11--9--11--12--14--9--11--9--11--12--9--12--11--9--11--12--14--9--11--9--11--12--|
A|------------------------------------------------------------------------------------------|
D|------------------------------------------------------------------------------------------|


e|------------------------------------------------------------------------------------------|
B|------------------------------------------------------------------------------------------|
G|------------------------------------------------------------------------------------------|
D|--9--12--11--9--11--12--14--9--11--9--11--12--9--12--11--9--11--12--14--9--11--9--11--12--|
A|------------------------------------------------------------------------------------------|
D|------------------------------------------------------------------------------------------|


e|-------------------------------------------------------------------------------------------------|
B|-------------------------------------------------------------------------------------------------|
G|-------------------------------------------------------------------------------------------------|
D|--5---5---5---5---5---5---5---5---5---5---5---5---7---7---7---7---7---7---7---7---7---7---7---7--|
A|--5---5---5---5---5---5---5---5---5---5---5---5---7---7---7---7---7---7---7---7---7---7---7---7--|
D|--5---5---5---5---5---5---5---5---5---5---5---5---7---7---7---7---7---7---7---7---7---7---7---7--|


e|------------------------------------------------------------------------------------------|
B|------------------------------------------------------------------------------------------|
G|------------------------------------------------------------------------------------------|
D|--9--12--11--9--11--12--14--9--11--9--11--12--9--12--11--9--11--12--14--9--11--9--11--12--|
A|------------------------------------------------------------------------------------------|
D|------------------------------------------------------------------------------------------|


e|------------------------------------------------------------------------------------------|
B|------------------------------------------------------------------------------------------|
G|------------------------------------------------------------------------------------------|
D|--9--12--11--9--11--12--14--9--11--9--11--12--9--12--11--9--11--12--14--9--11--9--11--12--|
A|------------------------------------------------------------------------------------------|
D|------------------------------------------------------------------------------------------|


e|-------------------------------------------------------------------------------------------------|
B|-------------------------------------------------------------------------------------------------|
G|-------------------------------------------------------------------------------------------------|
D|--5---5---5---5---5---5---5---5---5---5---5---5---7---7---7---7---7---7---7---7---7---7---7---7--|
A|--5---5---5---5---5---5---5---5---5---5---5---5---7---7---7---7---7---7---7---7---7---7---7---7--|
D|--5---5---5---5---5---5---5---5---5---5---5---5---7---7---7---7---7---7---7---7---7---7---7---7--|

Verse 2:
    P.M.------------------|                      P.M.------------------|
e|-------------------------------------------------------------------------------------------|
B|----------------------------10------------10-----------------------------10------------10--|
G|-------------------9--11----9----X---11---9---------------------9--11----9----X---11---9---|
D|--9--9--9--11--12------------------------------9--9--9--11--12-----------------------------|
A|-------------------------------------------------------------------------------------------|
D|-------------------------------------------------------------------------------------------|

    P.M.----------------|                     P.M.--------------|
e|---------------------------------------------------------------------------|
B|--------------------------7------------7-------------------------------5---|
G|--0--0--0---------7--9----6----X---4---6---------------------9--11----(6)--|
D|-----------9--11----------------------------7--7--9--11--12----------------|
A|---------------------------------------------------------------------------|
D|---------------------------------------------------------------------------|

Chorus:
e|--------------------------------------------------------------------------------------------------|
B|--------------------------------------------------------------------------------------------------|
G|--------------------------------------------------------------------------------------------------|
D|--5--5--5--5--5--5--5--5--5--5--5--5--5--5--5--5--5--5--5--5--5--5--5--5--5--5--5--5--5--5--5--5--|
A|--5--5--5--5--5--5--5--5--5--5--5--5--5--5--5--5--5--5--5--5--5--5--5--5--5--5--5--5--5--5--5--5--|
D|--5--5--5--5--5--5--5--5--5--5--5--5--5--5--5--5--5--5--5--5--5--5--5--5--5--5--5--5--5--5--5--5--|


e|--------------------------------------------------------------------------------------------------|
B|--------------------------------------------------------------------------------------------------|
G|--------------------------------------------------------------------------------------------------|
D|--7--7--7--7--7--7--7--7--7--7--7--7--7--7--7--7--7--7--7--7--7--7--7--7--7--7--7--7--7--7--7--7--|
A|--7--7--7--7--7--7--7--7--7--7--7--7--7--7--7--7--7--7--7--7--7--7--7--7--7--7--7--7--7--7--7--7--|
D|--7--7--7--7--7--7--7--7--7--7--7--7--7--7--7--7--7--7--7--7--7--7--7--7--7--7--7--7--7--7--7--7--|


e|--------------------------------------------------------------------------------------------------|
B|--------------------------------------------------------------------------------------------------|
G|--------------------------------------------------------------------------------------------------|
D|--5--5--5--5--5--5--5--5--5--5--5--5--5--5--5--5--5--5--5--5--5--5--5--5--5--5--5--5--5--5--5--5--|
A|--5--5--5--5--5--5--5--5--5--5--5--5--5--5--5--5--5--5--5--5--5--5--5--5--5--5--5--5--5--5--5--5--|
D|--5--5--5--5--5--5--5--5--5--5--5--5--5--5--5--5--5--5--5--5--5--5--5--5--5--5--5--5--5--5--5--5--|


e|--------------------------------------------------------------------------------------------------|
B|--------------------------------------------------------------------------------------------------|
G|--------------------------------------------------------------------------------------------------|
D|--7--7--7--7--7--7--7--7--7--7--7--7--7--7--7--7--7--7--7--7--7--7--7--7--7--7--7--7--7--7--7--7--|
A|--7--7--7--7--7--7--7--7--7--7--7--7--7--7--7--7--7--7--7--7--7--7--7--7--7--7--7--7--7--7--7--7--|
D|--7--7--7--7--7--7--7--7--7--7--7--7--7--7--7--7--7--7--7--7--7--7--7--7--7--7--7--7--7--7--7--7--|

Bridge:
e|----14--10-----14--12-----14--10-----14--12--|
B|----15--12-----15--14-----15--12-----15--14--|
G|---------------------------------------------|
D|--9---------9----------9---------------------|
A|--9---------9----------9---------------------|
D|--9---------9----------9---------------------|

Verse 1:
e|------------------------------------------------------------------------------------------|
B|------------------------------------------------------------------------------------------|
G|------------------------------------------------------------------------------------------|
D|--9--12--11--9--11--12--14--9--11--9--11--12--9--12--11--9--11--12--14--9--11--9--11--12--|
A|------------------------------------------------------------------------------------------|
D|------------------------------------------------------------------------------------------|


e|------------------------------------------------------------------------------------------|
B|------------------------------------------------------------------------------------------|
G|------------------------------------------------------------------------------------------|
D|--9--12--11--9--11--12--14--9--11--9--11--12--9--12--11--9--11--12--14--9--11--9--11--12--|
A|------------------------------------------------------------------------------------------|
D|------------------------------------------------------------------------------------------|


e|--------------------------------------------------------------------------------------------------|
B|--------------------------------------------------------------------------------------------------|
G|--------------------------------------------------------------------------------------------------|
D|--5--5--5--5--5--5--5--5--5--5--5--5--5--5--5--5--5--5--5--5--5--5--5--5--5--5--5--5--5--5--5--5--|
A|--5--5--5--5--5--5--5--5--5--5--5--5--5--5--5--5--5--5--5--5--5--5--5--5--5--5--5--5--5--5--5--5--|
D|--5--5--5--5--5--5--5--5--5--5--5--5--5--5--5--5--5--5--5--5--5--5--5--5--5--5--5--5--5--5--5--5--|


e|--------------------------------------------------------------------------------------------------|
B|--------------------------------------------------------------------------------------------------|
G|--------------------------------------------------------------------------------------------------|
D|--7--7--7--7--7--7--7--7--7--7--7--7--7--7--7--7--7--7--7--7--7--7--7--7--7--7--7--7--7--7--7--7--|
A|--7--7--7--7--7--7--7--7--7--7--7--7--7--7--7--7--7--7--7--7--7--7--7--7--7--7--7--7--7--7--7--7--|
D|--7--7--7--7--7--7--7--7--7--7--7--7--7--7--7--7--7--7--7--7--7--7--7--7--7--7--7--7--7--7--7--7--|

Verse 2:
    P.M.------------------|                      P.M.------------------|
e|-------------------------------------------------------------------------------------------|
B|----------------------------10------------10-----------------------------10------------10--|
G|-------------------9--11----9----X---11---9---------------------9--11----9----X---11---9---|
D|--9--9--9--11--12------------------------------9--9--9--11--12-----------------------------|
A|-------------------------------------------------------------------------------------------|
D|-------------------------------------------------------------------------------------------|

    P.M.----------------|                     P.M.--------------|
e|---------------------------------------------------------------------------|
B|--------------------------7------------7-------------------------------5---|
G|--0--0--0---------7--9----6----X---4---6---------------------9--11----(6)--|
D|-----------9--11----------------------------7--7--9--11--12----------------|
A|---------------------------------------------------------------------------|
D|---------------------------------------------------------------------------|

Chorus:
e|--------------------------------------------------------------------------------------------------|
B|--------------------------------------------------------------------------------------------------|
G|--------------------------------------------------------------------------------------------------|
D|--5--5--5--5--5--5--5--5--5--5--5--5--5--5--5--5--5--5--5--5--5--5--5--5--5--5--5--5--5--5--5--5--|
A|--5--5--5--5--5--5--5--5--5--5--5--5--5--5--5--5--5--5--5--5--5--5--5--5--5--5--5--5--5--5--5--5--|
D|--5--5--5--5--5--5--5--5--5--5--5--5--5--5--5--5--5--5--5--5--5--5--5--5--5--5--5--5--5--5--5--5--|


e|--------------------------------------------------------------------------------------------------|
B|--------------------------------------------------------------------------------------------------|
G|--------------------------------------------------------------------------------------------------|
D|--7--7--7--7--7--7--7--7--7--7--7--7--7--7--7--7--7--7--7--7--7--7--7--7--7--7--7--7--7--7--7--7--|
A|--7--7--7--7--7--7--7--7--7--7--7--7--7--7--7--7--7--7--7--7--7--7--7--7--7--7--7--7--7--7--7--7--|
D|--7--7--7--7--7--7--7--7--7--7--7--7--7--7--7--7--7--7--7--7--7--7--7--7--7--7--7--7--7--7--7--7--|


e|--------------------------------------------------------------------------------------------------|
B|--------------------------------------------------------------------------------------------------|
G|--------------------------------------------------------------------------------------------------|
D|--5--5--5--5--5--5--5--5--5--5--5--5--5--5--5--5--5--5--5--5--5--5--5--5--5--5--5--5--5--5--5--5--|
A|--5--5--5--5--5--5--5--5--5--5--5--5--5--5--5--5--5--5--5--5--5--5--5--5--5--5--5--5--5--5--5--5--|
D|--5--5--5--5--5--5--5--5--5--5--5--5--5--5--5--5--5--5--5--5--5--5--5--5--5--5--5--5--5--5--5--5--|


e|--------------------------------------------------------------------------------------------------|
B|--------------------------------------------------------------------------------------------------|
G|--------------------------------------------------------------------------------------------------|
D|--7--7--7--7--7--7--7--7--7--7--7--7--7--7--7--7--7--7--7--7--7--7--7--7--7--7--7--7--7--7--7--7--|
A|--7--7--7--7--7--7--7--7--7--7--7--7--7--7--7--7--7--7--7--7--7--7--7--7--7--7--7--7--7--7--7--7--|
D|--7--7--7--7--7--7--7--7--7--7--7--7--7--7--7--7--7--7--7--7--7--7--7--7--7--7--7--7--7--7--7--7--|

Break:
e|-------------------------|
B|-------------------------|
G|-------------------------|
D|-----------------11--12--|
A|-------------------------|
D|-------------------------|

Bridge:
e|------------------------------------------------|
B|------------------------------------------------|
G|------------------------------------------------|
D|--9--9----9----11----12----11----9------11--12--|
A|------------------------------------------------|
D|------------------------------------------------|


e|------------------------------------|
B|------------------------------------|
G|------------------------------------|
D|--9--9----9----11----12----11----9--|
A|------------------------------------|
D|------------------------------------|


e|-----------------------------------------------|
B|-----------------------------------------------|
G|-----------------------------------------------|
D|-----------------------------------------------|
A|--5/12--12--12--12\5--5--5--5/7--7--7--7\5--5--|
D|-----------------------------------------------|


e|-----------------------------------------------|
B|-----------------------------------------------|
G|-----------------------------------------------|
D|-----------------------------------------------|
A|--5/12--12--12--12\5--5--5--5/7--7--7--7\5--5--|
D|-----------------------------------------------|


e|------------------------------------------------|
B|------------------------------------------------|
G|------------------------------------------------|
D|--9--9----9----11----12----11----9------11--12--|
A|------------------------------------------------|
D|------------------------------------------------|


e|------------------------------------|
B|------------------------------------|
G|------------------------------------|
D|--9--9----9----11----12----11----9--|
A|------------------------------------|
D|------------------------------------|


e|-----------------------------------------------|
B|-----------------------------------------------|
G|-----------------------------------------------|
D|-----------------------------------------------|
A|--5/12--12--12--12\5--5--5--5/7--7--7--7\5--5--|
D|-----------------------------------------------|


e|-----------------------------------------------|
B|-----------------------------------------------|
G|-----------------------------------------------|
D|-----------------------------------------------|
A|--5/12--12--12--12\5--5--5--5/7--7--7--7\5--5--|
D|-----------------------------------------------|


e|-----------------------------------------------|
B|-----------------------------------------------|
G|-----------------------------------------------|
D|-----------------------------------------------|
A|--5/12--12--12--12\5--5--5--5/7--7--7--7\5--5--|
D|-----------------------------------------------|


e|------------------------------------------|
B|------------------------------------------|
G|------------------------------------------|
D|------------------------------------------|
A|--5/12--12--12--12\5--5--5--5/7--7--7--7--|
D|------------------------------------------|

Chorus:
e|--------------------------------------------------------------------------------------------------|
B|--------------------------------------------------------------------------------------------------|
G|--------------------------------------------------------------------------------------------------|
D|--5--5--5--5--5--5--5--5--5--5--5--5--5--5--5--5--5--5--5--5--5--5--5--5--5--5--5--5--5--5--5--5--|
A|--5--5--5--5--5--5--5--5--5--5--5--5--5--5--5--5--5--5--5--5--5--5--5--5--5--5--5--5--5--5--5--5--|
D|--5--5--5--5--5--5--5--5--5--5--5--5--5--5--5--5--5--5--5--5--5--5--5--5--5--5--5--5--5--5--5--5--|


e|--------------------------------------------------------------------------------------------------|
B|--------------------------------------------------------------------------------------------------|
G|--------------------------------------------------------------------------------------------------|
D|--7--7--7--7--7--7--7--7--7--7--7--7--7--7--7--7--7--7--7--7--7--7--7--7--7--7--7--7--7--7--7--7--|
A|--7--7--7--7--7--7--7--7--7--7--7--7--7--7--7--7--7--7--7--7--7--7--7--7--7--7--7--7--7--7--7--7--|
D|--7--7--7--7--7--7--7--7--7--7--7--7--7--7--7--7--7--7--7--7--7--7--7--7--7--7--7--7--7--7--7--7--|


e|--------------------------------------------------------------------------------------------------|
B|--------------------------------------------------------------------------------------------------|
G|--------------------------------------------------------------------------------------------------|
D|--5--5--5--5--5--5--5--5--5--5--5--5--5--5--5--5--5--5--5--5--5--5--5--5--5--5--5--5--5--5--5--5--|
A|--5--5--5--5--5--5--5--5--5--5--5--5--5--5--5--5--5--5--5--5--5--5--5--5--5--5--5--5--5--5--5--5--|
D|--5--5--5--5--5--5--5--5--5--5--5--5--5--5--5--5--5--5--5--5--5--5--5--5--5--5--5--5--5--5--5--5--|


e|--------------------------------------------------------------------------------------------------|
B|--------------------------------------------------------------------------------------------------|
G|--------------------------------------------------------------------------------------------------|
D|--7--7--7--7--7--7--7--7--7--7--7--7--7--7--7--7--7--7--7--7--7--7--7--7--7--7--7--7--7--7--7--7--|
A|--7--7--7--7--7--7--7--7--7--7--7--7--7--7--7--7--7--7--7--7--7--7--7--7--7--7--7--7--7--7--7--7--|
D|--7--7--7--7--7--7--7--7--7--7--7--7--7--7--7--7--7--7--7--7--7--7--7--7--7--7--7--7--7--7--7--7--|

Outro:
e|-----------------------------------------------|
B|-----------------------------------------------|
G|-----------9--------------------------------9--|
D|--9--9--9-------9--9--9----9--9----9--9--9-----|
A|-----------------------------------------------|
D|-----------------------------------------------|


e|-----------------------------------------------|
B|-----------------------------------------------|
G|-----------7--------------------------------7--|
D|--9--9--9-------9--9--9----9--9----9--9--9-----|
A|-----------------------------------------------|
D|-----------------------------------------------|


e|-----------------------------------------------|
B|-----------------------------------------------|
G|-----------9--------------------------------9--|
D|--9--9--9-------9--9--9----9--9----9--9--9-----|
A|-----------------------------------------------|
D|-----------------------------------------------|


e|-----------------------------------------------|
B|-----------------------------------------------|
G|-----------7--------------------------------7--|
D|--9--9--9-------9--9--9----9--9----9--9--9-----|
A|-----------------------------------------------|
D|-----------------------------------------------|


e|---------------------------------------------|
B|---------------------------------------------|
G|---------------------------------------------|
D|--5--5--5--5----5--5--5--5--5--5----5--5--5--|
A|--5--5--5--5----5--5--5--5--5--5----5--5--5--|
D|--5--5--5--5----5--5--5--5--5--5----5--5--5--|


e|------------------------------------------|
B|------------------------------------------|
G|------------------------------------------|
D|--7--7--7--7----7--7--7--7--7----7--7--7--|
A|--7--7--7--7----7--7--7--7--7----7--7--7--|
D|--7--7--7--7----7--7--7--7--7----7--7--7--|


e|------------------------------------------|
B|------------------------------------------|
G|------------------------------------------|
D|--9--9--9--9----9--9--9--9--9----9--9--9--|
A|--9--9--9--9----9--9--9--9--9----9--9--9--|
D|--9--9--9--9----9--9--9--9--9----9--9--9--|


e|------------------------------------------|
B|------------------------------------------|
G|------------------------------------------|
D|--7--7--7--7----7--7--7--7--7----7--7--7--|
A|--7--7--7--7----7--7--7--7--7----7--7--7--|
D|--7--7--7--7----7--7--7--7--7----7--7--7--|


e|---------------------------------------------|
B|---------------------------------------------|
G|---------------------------------------------|
D|--5--5--5--5----5--5--5--5--5--5----5--5--5--|
A|--5--5--5--5----5--5--5--5--5--5----5--5--5--|
D|--5--5--5--5----5--5--5--5--5--5----5--5--5--|


e|------------------------------------------|
B|------------------------------------------|
G|------------------------------------------|
D|--7--7--7--7----7--7--7--7--7----7--7--7--|
A|--7--7--7--7----7--7--7--7--7----7--7--7--|
D|--7--7--7--7----7--7--7--7--7----7--7--7--|


e|------------------------------------------|
B|------------------------------------------|
G|------------------------------------------|
D|--9--9--9--9----9--9--9--9--9----9--9--9--|
A|--9--9--9--9----9--9--9--9--9----9--9--9--|
D|--9--9--9--9----9--9--9--9--9----9--9--9--|


e|-----------------------------------------------|
B|-----------------------------------------------|
G|-----------------------------------------------|
D|--7--7--7--7----7--7--7--7--7----7--7--7----9--|
A|--7--7--7--7----7--7--7--7--7----7--7--7----9--|
D|--7--7--7--7----7--7--7--7--7----7--7--7----9--|

************************************

| /   slide up
| \   slide down
| h   hammer-on
| p   pull-off
| ~   vibrato
| +   harmonic
| x   Mute note
| b   Bend
| pb  Pre-bend
| br  Bend release
| pbr Pre-bend release
| brb Bend release bend

************************************
Добавлено: 20.04.2016
Другие материалы по этой песне:

Страница создана 19.03.2012
http://primanota.ru/alesana/the-lover-chords.htm
Привет, Гость.
Предлагаем пройти революционный курс по гитаре.
Подарок от PrimaNota.Ru, забирай!