PrimaNota.ru - самый крупный в мире бесплатный архив песенных текстов, аккордов, табулатур и нот


Alesana - The Best Laid Plans Of Mice And Marionettes - таба, бас-таба, видео

Регистрация Запомнить меня
Войти через:  Facebook Google Twitter Vk Yandex Mail.ru

Alesana - The Best Laid Plans Of Mice And Marionettes - таба, бас-таба, видео

Печатать
Просмотров: 140
Please rate and/or leave your feedback.

Song: The Best Laid Plans Of Mice And Marionettes
Band: Alesana
Album: A Place Where The Sun Is Silent
Tabbed by: Mr. Picky
Tuning: Drop D

Intro:
e||------------------------------------------||
B||-------4h52-------------4h52--------------||
G||------------------------------------------||
D||-----6------6h76-4h64--6-----6h76-4h6-----||
A||----4-----------------4--------------7----||
D||------------------------------------------||

e||-------------------------------||
B||-------5~----------------5~----||
G||-------------------------------||
D||-----2------6h76-4h64--2-------||
A||----0-----------------0--------||
D||-------------------------------||

e||--------------------------------------------||
B||--------------------------------------------||
G||----666-6-6~--666-6-6~----------------------||
D||----666-6-6~--666-6-6~--777-7-7~--7-7-7~----||
A||----444-4-4~--444-4-4~--777-7-7~--7-7-7-----||
D||------------------------777-7-7~--7-7-7~----||

e||--------------------------------------------||
B||--------------------------------------------||
G||----666-6-6~--666-6-6~----------------------||
D||----666-6-6~--666-6-6~--7-7-7~--777-7-7~----||
A||----444-4-4~--444-4-4~--7-7-7~--777-7-7-----||
D||------------------------7-7-7~--777-7-7~----||

e||-------------------||
B||-------------------||
G||----66-55-44-33----||
D||----66-55-44-33----||
A||----44-33-22-11----||
D||-------------------||

Verse:
e||-----------------------------||
B||-----------------------------||
G||-----------------------------|| (soft part)
D||----44-44444-44444-44x424----||
A||----44-44444-44444-44x424----||
D||----44-44444-44444-44x424----||

e||---------------------------||
B||---------------------------||
G||----6666-4444--------------||
D||----6666-4444-6666-7777----||
A||----4444-2222-6666-7777----||
D||--------------6666-7777----||

e||-----------------------------||
B||-----------------------------||
G||-----------------------------||
D||----44-44444-44444-44x424----||
A||----44-44444-44444-44x424----||
D||----44-44444-44444-44x424----||

e||---------------------------||
B||---------------------------||     _
G||----6666-4444--------------|| \/  _|
D||----6666-4444-6666-7777----|| /\ |_
A||----4444-2222-6666-7777----||
D||--------------6666-7777----||

e||----------------------------||
B||----------------------------||
G||--------------4~---55555----||
D||----4~---7~---4~---55555----||
A||----4~---7~---2~---33333----||
D||----4~---7~-----------------||

Chorus:
e||-------------------------------------------||
B||-------------------------------------------||
G||-------------------------------77777777----||
D||----44444444-22222222-77777777-77777777----||
A||----44444444-22222222-77777777-55555555----||
D||----44444444-22222222-77777777-------------||

e||-------------------------------------------||
B||-------------------------------------------||
G||-------------------------------44445555----||
D||----42444444-22222222-77777777-44445555----||
A||----42444444-22222222-77777777-22223333----||
D||----42444444-22222222-77777777-------------||

e||----------------------------------------||
B||----------------------------------------||     _
G||----------------------------------------|| \/  _|
D||----77-777-799-999-944-444-444-444-4----|| /\ |_
A||----77-777-799-999-944-444-444-444-4----||
D||----77-777-799-999-944-444-444-444-4----||
       .. ... ... ... ... ... ... ... .
e||---------------------------------------------------------||
B||---------------------------------------------------------||
G||--------------------666-666------------------66554433----||
D||----777-777-999-999-666-666-44442222-777-777-66554433----||
A||----777-777-999-999-444-444-44442222-777-777-44332211----||
D||----777-777-999-999---------44442222-777-777-------------||
       ..  ..  ..  ..  ..  ..           ..  ..
Verse:
e||-----------------------------||
B||-----------------------------||
G||-----------------------------|| (soft part)
D||----44-44444-44444-44x424----||
A||----44-44444-44444-44x424----||
D||----44-44444-44444-44x424----||

e||---------------------------||
B||---------------------------||
G||----6666-4444--------------||
D||----6666-4444-6666-7777----||
A||----4444-2222-6666-7777----||
D||--------------6666-7777----||

e||-----------------------------||
B||-----------------------------||
G||-----------------------------||
D||----44-44444-44444-44x424----||
A||----44-44444-44444-44x424----||
D||----44-44444-44444-44x424----||

e||---------------------------||
B||---------------------------||     _
G||----6666-4444--------------|| \/  _|
D||----6666-4444-6666-7777----|| /\ |_
A||----4444-2222-6666-7777----||
D||--------------6666-7777----||

e||----------------------------||
B||----------------------------||
G||--------------4~---55555----||
D||----4~---7~---4~---55555----||
A||----4~---7~---2~---33333----||
D||----4~---7~-----------------||

Chorus:
e||-------------------------------------------||
B||-------------------------------------------||
G||-------------------------------77777777----||
D||----44444444-22222222-77777777-77777777----||
A||----44444444-22222222-77777777-55555555----||
D||----44444444-22222222-77777777-------------||

e||-------------------------------------------||
B||-------------------------------------------||
G||-------------------------------44445555----||
D||----42444444-22222222-77777777-44445555----||
A||----42444444-22222222-77777777-22223333----||
D||----42444444-22222222-77777777-------------||

e||----------------------------------------||
B||----------------------------------------||     _
G||----------------------------------------|| \/  _|
D||----77-777-799-999-944-444-444-444-4----|| /\ |_
A||----77-777-799-999-944-444-444-444-4----||
D||----77-777-799-999-944-444-444-444-4----||
       .. ... ... ... ... ... ... ... .
e||----------------------------------------------------------------||
B||----------------------------------------------------------------||
G||--------------------666-666------------------66554433-----------||
D||----777-777-999-999-666-666-44442222-777-777-66554433-887766----||
A||----777-777-999-999-444-444-44442222-777-777-44332211-887766----||
D||----777-777-999-999---------44442222-777-777----------887766----||
       ..  ..  ..  ..  ..  ..           ..  ..
e||---------------------------------------------||
B||---------------------------------------------||
G||---------------------------------------------||
D||----44-444-444-444----44-444-444-44665544----||
A||----44-444-444-444202-44-444-444-44443322----||
D||----44-444-444-444----44-444-444-44----------||

e||---------------------------------------------||
B||---------------------------------------------||
G||---------------------------------------------||
D||----44-444-444-444----44-444-444-44-44444----||
A||----44-444-444-444202-44-444-444-44-44444----||
D||----44-444-444-444----44-444-444-44-44444----||

Bridge:
(I don't know the lead part. If you don't know it too,
then just strum these same chords softly.)
e||-------------------------------------------||
B||-------------------------------------------||
G||----66666666-4444--------------------------||
D||----66666666-44442222-77777777-77777777----||
A||----44444444-22222222-77777777-77777777----||
D||-----------------2222-77777777-77777777----||
       ........ ........ ........ ........
e||-------------------------------------||
B||-------------------------------------||
G||-------------------------------------||
D||----44444444-66666666-77777777-77----||
A||----44444444-66666666-77777777-77----||
D||----44444444-66666666-77777777-77----||
       ........ ........ ......

Bridge Continued...
Guitar 1
e||------------4--------------------4-----||
B||----2020-54---5-4-2--0h2-2h4-4h5--5----||
G||---------------------------------------||---------
D||---------------------------------------||         |
A||---------------------------------------||         |    _
D||---------------------------------------||         | \/ _| (do not play
                                                     | /\|_   last part
e||----------------------||---------------4-----||   |        on 2nd loop)
B||----2020-4--0-2-4-5---||---0h2-2h4-4h5--5----||   |
G||----------1-----------||---------------------||   |
D||----------------------||---------------------||---
A||----------------------||---------------------||
D||----------------------||---------------------||

Guitar 2
e||-------------------------------------------------------------------||
B||-------------------------------------------------------------------||
G||----66666666-4422--------------------------------------------------||
D||----66666666-44222222-77-77-77-77-44444444-66666666-77-77-77-77----||
A||----44444444-22002222-77-77-77-77-44444444-66666666-77-77-77-77----||
D||-----------------2222-77-77-77-77-44444444-66666666-77-77-77-77----||

e||-------------------------------------------------------||
B||-------------------------------------------------------||
G||----66666666-4422--------------------------------------||
D||----66666666-44222222-77-77-77-77-44444444-66666666----||
A||----44444444-22002222-77-77-77-77-44444444-66666666----||
D||-----------------2222-77-77-77-77-44444444-66666666----||

Bridge Continued...
e||-----------------------------------||
B||-----------------------------------||
G||-----------------------------------||
D||----7777-9999-4444-6666-7777777----||
A||----7777-9999-4444-6666-7777777----||
D||----7777-9999-4444-6666-7777777----||

Chorus:
e||-------------------------------------------||
B||-------------------------------------------||
G||-------------------------------77777777----||
D||----44444444-22222222-77777777-77777777----||--
A||----44444444-22222222-77777777-55555555----||  |     _
D||----44444444-22222222-77777777-------------||  | \/  _|
                                                  | /\ |_
e||-------------------------------------------||  |
B||-------------------------------------------||  |
G||-------------------------------44445555----||--
D||----42444444-22222222-77777777-44445555----||
A||----42444444-22222222-77777777-22223333----||
D||----42444444-22222222-77777777-------------||

End with:
(actually this part is in "And Now For The Final Illusion" already)
e||----------------------||
B||----------------------||
G||----66-55-44-33-2~----||
D||----66-55-44-33-2~----||
A||----44-33-22-11-0~----||
D||----------------------||
Добавлено: 10.03.2012
Другие материалы по этой песне:

Страница создана 10.03.2012
http://primanota.ru/alesana/the-best-laid-plans-of-mice-and-marionettes-chords.htm
Привет, Гость.
Предлагаем пройти революционный курс по гитаре.
Подарок от PrimaNota.Ru, забирай!