PrimaNota.ru - самый крупный в мире бесплатный архив песенных текстов, аккордов, табулатур и нот


Alesana - Ending Without Stories - бас-таба, видео

Регистрация Запомнить меня
Войти через:  Facebook Google Twitter Vk Yandex Mail.ru

Alesana - Ending Without Stories - бас-таба, видео

Печатать
Просмотров: 159
Ending Without Stories - Alesana

Drop D
Intro
G|----------------|
D|----------------|
A|----------------| x1
D|-5555-5555-5----|

Verse1
G|---------------------------------|
D|---------------------------------|
A|---------------------------------| x2
D|-55-5-5-77-7-7-88-8-8-1010-10-10-|

G|--------------------------------------|
D|--------------------------------------|
A|-55-5-5-55-5-5-55-5-5------5/10101010-| x1
D|----------------------77-7------------|

Chorus
G|--------------------------------------------------------------------------|
D|--------------------------------------------------------------------------|
A|-22222222/10--------45555555-75444444-------------------------------------|
D|------------5555555-------------------5757999999999-9779-55555555-7777777-|

G|-----|
D|-----|
A|-----|x1
D|-10*-|

Post Chorus
G|----------------|
D|----------------|
A|----------------| x1
D|-5555-5555-5----|

Verse2
G|---------------------------------|
D|---------------------------------|
A|---------------------------------| x1
D|-55-5-5-77-7-7-88-8-8-1010-10-10-|

G|----------------------------|
D|----------------------------|
A|----------------------------| x1
D|-55-5-5-77-7-7-88-8-8-87875-|

Bridge1
G|--------------------------------------------|
D|--------------------------------------------|
A|--------------------------------------------| x1
D|-444444-555555-244-244-244-244-444444-555-5-|




G|-------------------------------|
D|-------------------------------|
A|-222222---------------5545-4454-| x1
D|--------444444-555555----------|

G|------------------------|
D|------------------------|
A|-222222-----------------| x1
D|--------444444-555555-0-|

G|--------------------------------------|
D|--------------------------------------|
A|-22222222-------------------5545-4454-| x1
D|----------44444444-55555555-----------|

G|----------------------|
D|----------------------|
A|-222222---------------| x1
D|--------444444-555555-|

Bridge2
G|----|
D|----|
A|----| x1
D|-9*-|

G|---------------------------------|
D|---------------------------------|
A|-222222222222222-----------------| x1
D|-----------------0/9999999999999-|

Outro
G|-------------------------------------|
D|-------------------------------------|
A|-------------------------------------| x1
D|-99999999-09999999-09999999-09999999-|

G|-------------------------------------|
D|-------------------------------------|
A|-------------------------------------| x1
D|-05555555-05555555-05555555-05555555-|

G|-------------------------------------|
D|-------------------------------------|
A|--5555555--5555555--5555555--5555555-| x1
D|-0--------0--------0--------0--------|

G|---------------------------|
D|---------------------------|
A|--4*54—-4*54—-4*54—-4*54-2-| x1
D|-0-----0-----0-----0-------|

G|---------|
D|---------|
A|-9-9-9-9-| x1
D|---------|

P.S. This tab has some personal added notes
Submitted by Revin Enriquez...revin_schyte13@yahoo.com
Добавлено: 27.07.2012
Другие материалы по этой песне:
  • Аккорды и текст

Страница создана 27.07.2012
http://primanota.ru/alesana/ending-without-stories-chords.htm
Привет, Гость.
Предлагаем пройти революционный курс по гитаре.
Подарок от PrimaNota.Ru, забирай!