PrimaNota.ru - самый крупный в мире бесплатный архив песенных текстов, аккордов, табулатур и нот


Alesana - Better Luck Next Time Prince Charming - текст песни, таба, бас-таба, видео

Регистрация Запомнить меня
Войти через:  Facebook Google Twitter Vk Yandex Mail.ru

Alesana - Better Luck Next Time Prince Charming - текст песни, таба, бас-таба, видео

Печатать
Просмотров: 122
-------------------------------------------------------------------------------
                Better Luck Next Time, Prince Charming - Alesana
-------------------------------------------------------------------------------
Tabbed by: Wenkz
Email: franz_ignacio21@yahoo.com

NOTE: notes with an ASTERISK below them are PALM MUTED

Tuning: Drop D

Intro: Guitar 1 (2x)
e|---------------------------------------------------------------------------|
B|---------------------------------------------------------------------------|
G|---------------------------------------------------------------------------|
D|-----55----55----1~----33----33----11--------------------------------------|
A|-----55----55----1~----33----33----11--------------------------------------|
D|-----55----55----1~----33----33----11--------------------------------------|
       Guitar 2 (8x)
e|---------------------------------------------------------------------------|
B|---------------------------------------------------------------------------|
G|-----7-5p0-3p0-2p0-7-5p0-3p2p0---------------------------------------------|
D|-------------------------------3-5-----------------------------------------|
A|---------------------------------------------------------------------------|
D|---------------------------------------------------------------------------|

Verse: Guitar 1
e|---------------------------------------------------------------------------|
B|---------------------------------------------------------------------------|
G|---------------------------------------------------------------------------|
D|---555-5--555-5--555-5--555-5--333-3--333-3--333-3--333-3------------------|
A|---555-5--555-5--555-5--555-5--333-3--333-3--333-3--333-3------------------|
D|---555-5--555-5--555-5--555-5--333-3--333-3--333-3--333-3------------------|
     ***    ***    ***    ***    ***    ***    ***    ***
e|---------------------------------------------------------------------------|
B|---------------------------------------------------------------------------|
G|---------------------------------------------------------------------------|
D|---111-1--111-1--111-1--111-1--000-0--000-0--111-1--111-1------------------|
A|---111-1--111-1--111-1--111-1--000-0--000-0--111-1--111-1------------------|
D|---111-1--111-1--111-1--111-1--000-0--000-0--111-1--111-1------------------|
     ***    ***    ***    ***    ***    ***    ***    ***

Pre-Chorus: Guitar 1
e|---------------------------------------------------------------------------|
B|-----------------------5-----------------------------------10-9-9h10p9-----|
G|---------5-----5-----5---6-----3-----5--7--9-----3-----5---------------11--|
D|-------5-----3-----3---------3-----5-----------3-----5---------------------|
A|-----3-----3-----3---------1-----3-----------1-----3-----------------------|
D|---------------------------------------------------------------------------|
            Guitar 2 (Many Times)
e|---------------------------------------------------------------------------|
B|---------------------------------------------------------------------------|
G|------12-12-12-12----------------------------------------------------------|
D|---------------------------------------------------------------------------|
A|---------------------------------------------------------------------------|
D|---------------------------------------------------------------------------|

Chorus: Guitar 1
e|---------------------------------------------------------------------------|
B|---------------------------------------------------------------------------|
G|---------------------------------------------------------------------------|
D|-----88888888--1010101010101010--1212121212121212--1212121212121212--------|
A|-----88888888--1010101010101010--1212121212121212--1212121212121212--------|
D|-----88888888--1010101010101010--1212121212121212--1212121212121212--------|
        Guitar 2 (Many Times, Just Time It Right ^_^)
e|---------------------------------------------------------------------------|
B|------6-5-5h6p5----6-5-5h6p5-----------------------------------------------|
G|----------------7------------5-7-------------------------------------------|
D|---------------------------------------------------------------------------|
A|---------------------------------------------------------------------------|
D|---------------------------------------------------------------------------|

Verse 2: Guitar 1 (2x)
e|---------------------------------------------------------------------------|
B|---------------------------------------------------------------------------|
G|-------------------------------------------------------[3+]----------------|
D|---11-111-11-111--55-555-5-1-3--11-111-11--55-555-5-1----------------------|
A|---11-111-11-111--55-555-5-1-3--11-111-11--55-555-5-1----------------------|
D|---11-111-11-111--55-555-5-1-3--11-111-11--55-555-5-1----------------------|
        ***    ***     ***           ***        ***
  Guitar 2  (Comes In After Above Is Played By Guitar 1 The 2nd Time)
e|----------------------------------------------------7/9-----------------------|
B|---------8---------------------------8--------8/10----------------------------|
G|---6h7p6---7-6-7---7---5---3---6h7p6---7-6-7----------------------------------|
D|-----------------5---3---1----------------------------------------------------|
A|------------------------------------------------------------------------------|
D|------------------------------------------------------------------------------|

Chorus: Guitar 1
e|---------------------------------------------------------------------------|
B|---------------------------------------------------------------------------|
G|---------------------------------------------------------------------------|
D|-----88888888--1010101010101010--1212121212121212--1212121212121212--------|
A|-----88888888--1010101010101010--1212121212121212--1212121212121212--------|
D|-----88888888--1010101010101010--1212121212121212--1212121212121212--------|
        Guitar 2 (Many Times, Just Time It Right ^_^)
e|---------------------------------------------------------------------------|
B|------6-5-5h6p5----6-5-5h6p5-----------------------------------------------|
G|----------------7------------5-7-------------------------------------------|
D|---------------------------------------------------------------------------|
A|---------------------------------------------------------------------------|
D|---------------------------------------------------------------------------|

BREAKDOWN (Come And Claim Your Queen!): Guitar 1 & Guitar 2
e|-----------------|-------------------10/12\--------------------------------|
B|-----------------|-----------9/11/12---------------------------------------|
G|-----------------|---9/11/13-----------------------------------------------|
D|---88-10-7-------|---------------------------------------------------------|
A|---88-10-7-------|---------------------------------------------------------|
D|---88-10-7-------|---------------------------------------------------------|

Bridge: Guitar 1 (Many Times)  <<(After 2nd Time Guitar Does That) Guitar 2
e|-----------------------------------|----------------------------------------|
B|------------------------6h8--------|----------------------------------------|
G|----------------7-7-5h7------------|----------------------------------------|
D|--------5h7-5h7--------------------|----1111111111111-----------------------|
A|-----------------------------------|----1111111111111-----------------------|
E|-----------------------------------|----1111111111111-----------------------|
D|-----------------------------------|----1111111111111-----------------------|
                                          *************
        Guitar 2 (2x)
e|---------------------------------------------------------------------------|
B|---------------------------------------------------------------------------|
G|---------------------------------------------------------------------------|
D|------88888888-10101010101010-00-00-00-00-000000-00-00-00-00-0000-8-7------|
A|------88888888-10101010101010-00-00-00-00-000000-00-00-00-00-0000-8-7------|
D|------88888888-10101010101010-00-00-00-00-000000-00-00-00-00-0000-8-7------|

Pre-Chorus: Guitar 1
e|---------------------------------------------------------------------------|
B|-----------------------5-----------------------------------10-9-9h10p9-----|
G|---------5-----5-----5---6-----3-----5--7--9-----3-----5---------------11--|
D|-------5-----3-----3---------3-----5-----------3-----5---------------------|
A|-----3-----3-----3---------1-----3-----------1-----3-----------------------|
D|---------------------------------------------------------------------------|
            Guitar 2 (Many Times)
e|---------------------------------------------------------------------------|
B|---------------------------------------------------------------------------|
G|------12-12-12-12----------------------------------------------------------|
D|---------------------------------------------------------------------------|
A|---------------------------------------------------------------------------|
D|---------------------------------------------------------------------------|

Chorus (2x): Guitar 1
e|---------------------------------------------------------------------------|
B|---------------------------------------------------------------------------|
G|---------------------------------------------------------------------------|
D|-----88888888--1010101010101010--1212121212121212--1212121212121212--------|
A|-----88888888--1010101010101010--1212121212121212--1212121212121212--------|
D|-----88888888--1010101010101010--1212121212121212--1212121212121212--------|
        Guitar 2 (Many Times, Just Time It Right ^_^)
e|---------------------------------------------------------------------------|
B|------6-5-5h6p5----6-5-5h6p5-----------------------------------------------|
G|----------------7------------5-7-------------------------------------------|
D|---------------------------------------------------------------------------|
A|---------------------------------------------------------------------------|
D|---------------------------------------------------------------------------|

END :P

PLS. Carefully follow instructions and listen to the song VERY CAREFULLY :)

Enjoy.. This was pretty hard to tab so pls. RATE, thanx, I'll be making more off Where 
Fades To Legend.. Goodluck.. :)

| \  slide down
| h  hammer-on
| p  pull-off
| ~  vibrato
| +  harmonic
| x  Mute note
===============================================================================
Добавлено: 10.07.2013
Другие материалы по этой песне:

Страница создана 10.07.2013
http://primanota.ru/alesana/better-luck-next-time-prince-charming-chords.htm
Привет, Гость.
Предлагаем пройти революционный курс по гитаре.
Подарок от PrimaNota.Ru, забирай!