PrimaNota.ru - самый крупный в мире бесплатный архив песенных текстов, аккордов, табулатур и нот


Alesana - All Night Dance Parties In The Underground Palace - текст песни, таба, бас-таба, видео

Регистрация Запомнить меня
Войти через:  Facebook Google Twitter Vk Yandex Mail.ru

Alesana - All Night Dance Parties In The Underground Palace - текст песни, таба, бас-таба, видео

Печатать
Просмотров: 166
Уроки эстрадного вокала в Санкт-Петербурге
-------------------------------------------------------------------------------
        ALL NIGHT DANCE PARTIES IN THE UNDERGROUND PALACE - Alesana
-------------------------------------------------------------------------------
Tabbed by:Ross Reynald T. Cabanganan

Email:ciden_13@yahoo.com	


This is my first tab. hope all of you like it. please rate... ^___^

Note: the other lead parts are hard to hear so i know there are some mistakes
in my tab and just follow the song pattern. thx.. ^___^


†---------------†
| /  slide up   |
| \  slide down |
| h  hammer-on  |
| ~  vibrato    |
†---------------†


Tuning:Drop D

Intro

Guitar 1

e|-----------------------12---9-10-------------------------------------------|
B|-----10-------10-----------------------------------------------------------|
G|--------9---9----9---9-----------------------------------------------------|4X
D|----------11-------11------------------------------------------------------|
A|---------------------------------------------------------------------------|
D|---------------------------------------------------------------------------|

guitar 2

e|---------------------------------------------------------------------------|
B|---------------------------------------------------------------------------|
G|---------------------------------------------------------------------------|
D|-----9~---5~---7~---4~-----------------------------------------------------|
A|-----9~---5~---7~---4~-----------------------------------------------------|
D|-----9~---5~---7~---4~-----------------------------------------------------|

Verse

Guitar 1

    Beautiful, you know you leave me breathless when you fall into my eyes...
e|------------------------------12----9-10-----------------------------------|
B|----------10--------------10-------------------10--------------------------|
G|--------9----9---------9---------------------9-----------------------------|
D|-----11--------11-------------------------11-------8888888-----------------|2X
A|---------------------------------------------------8888888-----------------|
D|---------------------------------------------------8888888-----------------|

guitar2

e|---------------------------------------------------------------------------|
B|---------------------------------------------------------------------------|
G|---------------------------------------------------------------------------|
D|-----99999999\----55555555/----77777777\----4444444------------------------|2X
A|-----99999999\----55555555/----77777777\----4444444------------------------|
D|-----99999999\----55555555/----77777777\----4444444------------------------|
PM     ........     ........     ........     .......

Pre Chorus

guitar 1&2

    ...that at times it may be hard to let go of yourself...
e|---------------------------------------------------------------------------|
B|---------------------------------------------------------------------------|
G|---------------------------------------------------------------------------|
D|-----999999999\-----444444444/-----5555555555\-----444444444/----8~--------|
A|-----999999999\-----444444444/-----5555555555\-----444444444/----8~--------|
D|-----999999999\-----444444444/-----5555555555\-----444444444/----8~--------|
PM     .........      .........      ..........      .........

chorus

guitar 1&2

    all night long i'll sing and dance with you my sweet princess...
e|---------------------------------------------------------------------------|
B|---------------------------------------------------------------------------|
G|---------------------------------------------------------------------------|
D|-----5555555/-----7777777/-----9999999\-----444444444----------------------|
A|-----5555555/-----7777777/-----9999999\-----444444444----------------------|
D|-----5555555/-----7777777/-----9999999\-----444444444----------------------|

    ...only if you trust in this, Take my hand and follow me...
e|---------------------------------------------------------------------------|
B|---------------------------------------------------------------------------|
G|---------------------------------------------------------------------------|
D|-----5555555/-----7777777\-----44444444444444------------------------------|
A|-----5555555/-----7777777\-----44444444444444------------------------------|
D|-----5555555/-----7777777\-----44444444444444------------------------------|

    ...I will sweep you off of your feet...     
e|---------------------------------------------------------------------------|
B|---------------------------------------------------------------------------|
G|---------------------------------------------------------------------------|
D|-----5555555/-----7777777\-----4444444/-----9999999\---7-------------------|
A|-----5555555/-----7777777\-----4444444/-----9999999\---7-------------------|
D|-----5555555/-----7777777\-----4444444/-----9999999\---7-------------------|


    ...All night long I will sing and dance with you...
e|---------------------------------------------------------------------------|
B|---------------------------------------------------------------------------|
G|---------------------------------------------------------------------------|
D|-----5555555/-----7777777\-----4444444444~---------------------------------|
A|-----5555555/-----7777777\-----4444444444~---------------------------------|
D|-----5555555/-----7777777\-----4444444444~---------------------------------|


-Repeat verse and pre chorus then chorus-

bridge

guitar 2

    My sweet princess I will sing and dance with you all night long...
    The stars, they belong to you my angel...
e|---------------------------------------------------------------------------|
B|---------------------------------------------------------------------------|
G|---------------------------------------------------------------------------|
D|-----9999999\-----4444444/-----5555555\-----4444444/-----88888-------------|2X
A|-----9999999\-----4444444/-----5555555\-----4444444/-----88888-------------|
D|-----9999999\-----4444444/-----5555555\-----4444444/-----88888-------------|

guitar 1

e|---------------------------------------------------------------------------|
B|------------7-----------------------7------7-------------------------------|
G|-----4h6--4---6--4-----------4h6--4---6--4---------------------------------|
D|---------------------------------------------------------------------------|
A|---------------------------------------------------------------------------|
D|---------------------------------------------------------------------------|


chorus

guitar 1&2

    all night long i'll sing and dance with you my sweet princess...
e|---------------------------------------------------------------------------|
B|---------------------------------------------------------------------------|
G|---------------------------------------------------------------------------|
D|-----5555555/-----7777777/-----9999999\-----444444444----------------------|
A|-----5555555/-----7777777/-----9999999\-----444444444----------------------|
D|-----5555555/-----7777777/-----9999999\-----444444444----------------------|

    ...only if you trust in this, Take my hand and follow me...
e|---------------------------------------------------------------------------|
B|---------------------------------------------------------------------------|
G|---------------------------------------------------------------------------|
D|-----5555555/-----7777777\-----44444444444444------------------------------|
A|-----5555555/-----7777777\-----44444444444444------------------------------|
D|-----5555555/-----7777777\-----44444444444444------------------------------|

    ...I will sweep you off of your feet...     
e|---------------------------------------------------------------------------|
B|---------------------------------------------------------------------------|
G|---------------------------------------------------------------------------|
D|-----5555555/-----7777777\-----4444444/-----9999999\---7-------------------|
A|-----5555555/-----7777777\-----4444444/-----9999999\---7-------------------|
D|-----5555555/-----7777777\-----4444444/-----9999999\---7-------------------|


    ...This night will only end when we stop...
e|---------------------------------------------------------------------------|
B|---------------------------------------------------------------------------|
G|---------------------------------------------------------------------------|
D|-----5555555/-----7777777\-----4444444444----------------------------------|
A|-----5555555/-----7777777\-----4444444444----------------------------------|
D|-----5555555/-----7777777\-----4444444444----------------------------------|



Thats it! enjoy! for comments and suggestion just email me... thanks!
god bless!

If there's any mistake in the tab,
don't hesitate to correct me: ciden_13@yahoo.com


===============================================================================
Добавлено: 29.09.2013
Другие материалы по этой песне:
  • Аккорды и текст

Страница создана 07.09.2013
http://primanota.ru/alesana/all-night-dance-parties-in-the-underground-palace-chords.htm
Привет, Гость.
Предлагаем пройти революционный курс по гитаре.
Подарок от PrimaNota.Ru, забирай!