PrimaNota.ru - самый крупный в мире бесплатный архив песенных текстов, аккордов, табулатур и нот


Alesana - All Night Dance Parties In The Undeground - таба, видео

Регистрация Запомнить меня
Войти через:  Facebook Google Twitter Vk Yandex Mail.ru

Alesana - All Night Dance Parties In The Undeground - таба, видео

Печатать
Просмотров: 121
Band : Alesana
Song title : All night dance parties in the underground
Guitar tune : Drop D

 Intro:

      E|-----------------12------9-10--|
      B|-10-----10---------------------|
      G|----9-7----9-7-9----9-10-------|  4x
      D|-------------------------------|
      A|-------------------------------|
      D|-------------------------------|


 Verse:

      E|----------------------------------------------12-9-10----|
      B|-----10------------------------------------10------------|
      G|-7-9----9-7------------------------------9---------------|
      D|---------------------------------------------------------|
      A|---------------------------------------------------------|
      D|---------------------------------------------------------|
      Beautiful you know you leave me breathless when You fall into my eyes

      E|------------------------------------------|
      B|-----10-----------------------------------|
      G|-7-9----9-7-------------------------------|
      D|----------------8888888888----------------|
      A|----------------8888888888----------------|
      D|----------------8888888888----------------|
       My hearts belong to you my angel

      E|---------------------------------12-9-10----|
      B|-----10-----------------------10------------|
      G|-7-9----9-7-----------------9---------------|
      D|--------------------------------------------|
      A|--------------------------------------------|
      D|--------------------------------------------|
       There is just no reason for you to let life bring you down

      E|--------------------------------------------|
      B|-----10-------------------------------------|
      G|-7-9----9-7---------------------------------|
      D|-------------------8888888888---------------|
      A|-------------------8888888888---------------|
      D|-------------------8888888888---------------|
       Please come with me let me show you

     refrain:

      E|-------------------------------------------------------|
      B|-------------------------------------------------------|
      G|-----------------6xxx6xxx6xxx6xx6-6/7xxx7xxx7xxx7xxx---|
      D|9999999999999999-4444444444444444---5555555555555555---|
      A|9999999999999999-4444444444444444---55555555555555555--|
      D|9999999999999999-4444444444444444---55555555555555555--|
       i know that it ti.hard to let go of yourself baby come tonight

      E|------------------------------------------|
      B|-----------------------------------7------|
      G|-7p66xxx6xxx6xxx6xxx6---------------7-----|
      D|----44444444444444444------------8----4---|
      A|----44444444444444444------------8--------|
      D|----44444444444444444------------8--------|
          leave cares tonight because its time to celebrate

     chorus:

      E|-------------------------------------------------|
      B|-------------------------------------------------|
      G|-------------------------------------------------|
      D|-55555555--77777777--99999999--44444444----------|
      A|-55555555--77777777--99999999--44444444----------|
      D|-55555555--77777777--99999999--44444444----------|
       All night long ..

      E|-----------------------------------------------------|
      B|-----------------------------------------------------|
      G|-----------------------------------------------------|
      D|--55555555--77777777--4444444444444444---------------|
      A|--55555555--77777777--4444444444444444---------------|
      D|--55555555--77777777--4444444444444444---------------|
         only if you trust.....

      E|-------------------------------------------------|
      B|-------------------------------------------------|
      G|-------------------------------------------------|
      D|-55555555--77777777--99999999--44444444----------|
      A|-55555555--77777777--99999999--44444444----------|
      D|-55555555--77777777--99999999--44444444----------|
         i will sweep you.....

      bridge:

      E|----------------------------------------------------|
      B|----------------------------------------7-----7---7-|
      G|-----------------------------------------7-4---7-4--|
      D|-88888888--4444444--55555555--44444/88--------------|
      A|-88888888--4444444--55555555--44444/88--------------|
      D|-88888888--4444444--55555555--44444/88--------------|
                           my sweet princess i will sing and dance with you..

      this is my 3rd tab hope you like it!!!e-mail me if have any correction in my tab 
then add me in fs sinansuy@yahoo.com!!thx!!
Добавлено: 01.09.2013
Другие материалы по этой песне:
  • Аккорды и текст

Страница создана 01.09.2013
http://primanota.ru/alesana/all-night-dance-parties-in-the-undeground-chords.htm
Привет, Гость.
Предлагаем пройти революционный курс по гитаре.
Подарок от PrimaNota.Ru, забирай!