PrimaNota.ru - самый крупный в мире бесплатный архив песенных текстов, аккордов, табулатур и нот


Alesana - A Place Where The Sun Is Silent - таба, видео

Регистрация Запомнить меня
Войти через:  Facebook Google Twitter Vk Yandex Mail.ru

Alesana - A Place Where The Sun Is Silent - таба, видео

Печатать
Просмотров: 236
____    ___  _    ____ ____ ____    _ _ _ _  _ ____ ____ ____ 
|__|    |__] |    |__| |    |___    | | | |__| |___ |__/ |___ 
|  |    |    |___ |  | |___ |___    |_|_| |  | |___ |  \ |___ 
                                                              

___ _  _ ____    ____ _  _ _  _    _ ____    ____ _ _    ____ _  _ ___ 
 |  |__| |___    [__  |  | |\ |    | [__     [__  | |    |___ |\ |  |  
 |  |  | |___    ___] |__| | \|    | ___]    ___] | |___ |___ | \|  |  


Album: A Place Where The Sun Is Silent
Artist: Alesana
Tabbed by:Mr. Picky
Tuning: Drop D


I made this all by myself, so please try them out and have fun.
There are mostly just rhythm parts. I leave the lead parts to you. :P
Rate and/or leave your feedback. I appreciate them.
I'll be including the lyrics so you can sing along.

////////////////////////////////////////////////////////////////

Track Listing:

Act One: The Gate

01. The Dark Wood of Error
02. A Forbidden Dance
03. Hand in Hand with the Damned
04. Beyond the Sacred Glass
05. The Temptress
06. Circle VII: Sins of the Lion
07. Vestige
08. Lullaby of the Crucified

Act Two: The Immortal Still

09. Before Him All Shall Scatter
10. Labyrinth
11. The Fiend
12. Welcome To The Vanity Faire
13. The Wanderer
14. A Gilded Masquerade
15. The Best Laid Plans of Mice and Marionettes
16. And Now for the Final Illusion

////////////////////////////////////////////////////////////////

01. The Dark Wood Of Error

Spoken:
(Ladies and gentlemen, please take your seats.
Our story is about to begin.)

Salvation cries, but all I can see 
Is darkness following me
e||-------------------------------------------------||
B||-------------------------------------------------||    _
G||------2---2---2--2-0-----------------------------|| \/ _|
D||-----2---2---2-------3-------2-----2-----2-3~----|| /\|_
A||----0---0---0------------0-3---0-3---0-3---------||
D||-------------------------------------------------||

And I might be crazy just for looking at you
I must be crazy if I think that it's true
e||--------------------------||
B||------1----3----5--85-----||    _
G||-----2----4----5-----5----|| \/ _|
D||----3----5----7-----------|| /\ _|
A||--------------------------||
D||--------------------------||

e||--------------------||
B||------1----3--------||
G||-----2----4---5~----||
D||----3----5----5~----||
A||--------------3~----||
D||--------------------||

The things I've done to be with you
They echo in my every move
e||-------------------------------------------------||
B||-------------------------------------------------||    _
G||------2---2---2--2-0-----------------------------|| \/ _|
D||-----2---2---2-------3-------2-----2-----2-3~----|| /\|_
A||----0---0---0------------0-3---0-3---0-3---------||
D||-------------------------------------------------||

And I might be crazy just for looking at you
I must be crazy if I think that it's true
e||--------------------------||
B||------1----3----5--85-----||    _
G||-----2----4----5-----5----|| \/ _|
D||----3----5----7-----------|| /\ _|
A||--------------------------||
D||--------------------------||

e||--------------------||
B||------1----3--------||
G||-----2----4---5~----||
D||----3----5----5~----||
A||--------------3~----||
D||--------------------||

The rest are spoken

////////////////////////////////////////////////////////////////

02. A Forbidden Dance

Stay to the path. Trust only your faith, to falter is...
e||--------------------------------------||
B||--------------------------------------||
G||--------------------------------------||
D||---10--8-10-8-10-8-10-8-10-8-10-6-8---||
A||---10--8-10-8-10-8-10-8-10-8-10-6-8---||
D||---10--8-10-8-10-8-10-8-10-8-10-6-8---||

to hasten your doom. I dare not say my hope is slipping away
e||--------------------------------------||
B||--------------------------------------||
G||----------------------8~10~-----------||
D||---10--8-10-8-10-8-10-8~10~6---8-88---||
A||---10--8-10-8-10-8-10-6~8~-6---8-88---||
D||---10--8-10-8-10-8-10------6---8-88---||

Such gleaming fangs mock the gilded gates
e||--------------------------------------||
B||--------------------------------------||
G||--------------------------------------||
D||---10--8-10-8-10-8-10-8-10-8-10-6-8---||
A||---10--8-10-8-10-8-10-8-10-8-10-6-8---||
D||---10--8-10-8-10-8-10-8-10-8-10-6-8---||

The way of the true. Tell me what to do sweet spirit
e||--------------------------------------||
B||--------------------------------------||
G||----------------------8~10~-----------||
D||---10--8-10-8-10-8-10-8~10~6---8-88---||
A||---10--8-10-8-10-8-10-6~8~-6---8-88---||
D||---10--8-10-8-10-8-10------6---8-88---||

Yea yea yea yea yea!
Your wildest dreams have come true!
Welcome to what I call hell! Help me!
e||-----------------------||
B||-----------------------||
G||---55555555-55555555---||
D||---55555555-55555555---||
A||---33333333-33333333---||
D||-----------------------||

Infatuation has strangled me again
There's no resisting the tangled web of your secret fantasy
A strange sensation is falling over me
I may be blind but I can see your kiss will punish me
Your kiss will ruin me
e||-----------------------------------------||
B||-----------------------------------------||     _
G||---55555555-------------------88888888---|| \/  _|
D||---55555555-66666666-88888888-88888888---|| /\ |_
A||---33333333-66666666-88888888-66666666---||
D||------------66666666-88888888------------||

(Will ruin me)
Guitar I
e||--------------------------------------------------------||
B||--------------------------------------------------------|| 
G||--77--------------------------/7---7--------------------||
D||-----10-9-10-----10-10-979~------7---10-7---10-9-7-/9---||
A||--------------------------------------------------------||
D||--------------------------------------------------------||

Guitar II
e||-----------------------------------------||
B||-----------------------------------------||
G||-----------------------------------------||
D||--1~----3~----5~--------1~----3~----5~---||
A||--1~----3~----5~--------1~----3~----5~---||
D||--1~----3~----5~--------1~----3~----5~---||

Well, here we go! I tear myself from the beaten path
e||--------------------------------------||
B||--------------------------------------||
G||--------------------------------------||
D||---10--8-10-8-10-8-10-8-10-8-10-6-8---||
A||---10--8-10-8-10-8-10-8-10-8-10-6-8---||
D||---10--8-10-8-10-8-10-8-10-8-10-6-8---||

never to look back. And still I glance, the lure of a forbidden dance
e||--------------------------------------||
B||--------------------------------------||
G||----------------------8~10~-----------||
D||---10--8-10-8-10-8-10-8~10~6---8-88---||
A||---10--8-10-8-10-8-10-6~8~-6---8-88---||
D||---10--8-10-8-10-8-10------6---8-88---||

I'm hypnotized by the sordid nymph
e||--------------------------------------||
B||--------------------------------------||
G||--------------------------------------||
D||---10--8-10-8-10-8-10-8-10-8-10-6-8---||
A||---10--8-10-8-10-8-10-8-10-8-10-6-8---||
D||---10--8-10-8-10-8-10-8-10-8-10-6-8---||

who races from me. Suddenly, my eyes see clearly
e||--------------------------------------||
B||--------------------------------------||
G||----------------------8~10~-----------||
D||---10--8-10-8-10-8-10-8~10~6---8-88---||
A||---10--8-10-8-10-8-10-6~8~-6---8-88---||
D||---10--8-10-8-10-8-10------6---8-88---||

Yea yea yea yea yea!
Your wildest dreams have come true!
Welcome to what I call hell! Help me!
e||-----------------------||
B||-----------------------||
G||---55555555-55555555---||
D||---55555555-55555555---||
A||---33333333-33333333---||
D||-----------------------||

Infatuation has strangled me again
There's no resisting the tangled web of your secret fantasy
A strange sensation is falling over me
I may be blind but I can see your kiss will punish me
e||-----------------------------------------||
B||-----------------------------------------||     _
G||---55555555-------------------88888888---|| \/  _|
D||---55555555-66666666-88888888-88888888---|| /\ |_
A||---33333333-66666666-88888888-66666666---||
D||------------66666666-88888888------------||

I fall down on my knees in anticipation of the dawning
Curiosity is laughing
I decide that if I'm to die here I will not go calmly
I will not go down without a fight
e||-----------------------------------------||
B||-----------------------------------------||     _
G||---55555555----------88888888------------|| \/  _|
D||---55555555-88888888-88888888-66666666---|| /\ |_
A||---33333333-88888888-66666666-66666666---||
D||------------88888888----------66666666---||
      ........ ........ ........ ........

(Solo)
Help me!
e||-----------------------------------------||
B||-----------------------------------------||
G||---55555555-------------------88888888---||
D||---55555555-66666666-88888888-88888888---||
A||---33333333-66666666-88888888-66666666---||
D||------------66666666-88888888------------||

Infatuation has strangled me again
There's no resisting the tangled web of your secret fantasy
A strange sensation is falling over me
I may be blind but I can see your kiss will punish me
Your kiss will ruin me
e||-----------------------------------------||
B||-----------------------------------------||     _
G||---55555555-------------------88888888---|| \/  _|
D||---55555555-66666666-88888888-88888888---|| /\ |_
A||---33333333-66666666-88888888-66666666---||
D||------------66666666-88888888------------||

(outro)
e||------------------------||
B||------------------------||    _
G||------------------------|| \/ _|
D||---1111-3333-55555555---|| /\ _|
A||---1111-3333-55555555---||
D||---1111-3333-55555555---||

e||-------------------||
B||-------------------||
G||-------------------||
D||---1111-3333-5-5---||
A||---1111-3333-5-5---||
D||---1111-3333-5-5---||

////////////////////////////////////////////////////////////////

03. Hand in Hand with the Damned

Intro:
e||--------------------------||
B||--------------------------||    
G||--------------7777--------|| \/|_|
D||----88888888--77777777----|| /\  |
A||----88888888--55557777----||
D||----88888888------7777----||

I don't trust myself
I'm trapped drowning in despair, I'm poisonous.
I slammed the door and locked it shut and now disaster plagues my thoughts.
Let's drink to the dead, "Cheers to what's ahead!" I'm poisonous.
e||----------------------------------------------||
B||----------------------------------------------||    _
G||------------------------33333333--55555555----|| \/ _|
D||----77777777--77777777--33333333--55555555----|| /\|_
A||----xxxxxxxx--xxxxxxxx--11111111--33333333----||
D||----77777777--77777777------------------------||

Sweet temptress!
e||----------------||
B||----------------||
G||----------------||
D||----0-0-0-xx----||
A||----0-0-0-xx----||
D||----0-0-0-xx----||

I can see it in your eyes, you're moving on without me!
So it ends tonight, I guess this is goodbye!
Selfishly you say you're better off without me.
And it ends tonight. Well baby save your breath.
e||--------------------------||
B||--------------------------||    
G||--------------7777--------|| \/|_|
D||----88888888--77777777----|| /\  |
A||----88888888--55557777----||
D||----88888888------7777----||

e||---------------------||
B||---------------------||
G||-------7-9-10-9-7----||
D||----7----------------||
A||----7----------------||
D||----7----------------||

Won't you please have mercy!?
Before you push me away let me try to change your mind.
e||----------------------------------------------||
B||----------------------------------------------||
G||----33-x-55-x-7777777---33-x-53-x-66666666----||
D||----33-x-55-x-7777777---33-x-53-x-77777777----||
A||----11-x-33-x-5555555---11-x-33-x-44444444----||
D||----------------------------------------------||

Oh wanderer!
e||----------------------------------------||
B||----------------------------------------||
G||----33-x-55-x-77-x-55---33333333--------||
D||----33-x-55-x-77-x-55---33333333--0~----||
A||----11-x-33-x-55-x-33---11111111--0~----||
D||----------------------------------0~----||

If you think this is fun just you wait until I'm done!
e||-------------------------------------------||
B||-------------------------------------------||
G||-------------------------------------------||
D||-------------------------------88887777----||
A||----55555555-77777777-88888888-------------||
D||-------------------------------------------||

Blessed fortune screams,"Why have you forsaken me?!"
There's no escape..I never should have lost my way.
And now I'm stranded out at sea chasing a lie?
There's no escape. I'm losing the sky.
e||----------------------------------------------||
B||----------------------------------------------||    _
G||------------------------33333333--55555555----|| \/ _|
D||----77777777--77777777--33333333--55555555----|| /\|_
A||----xxxxxxxx--xxxxxxxx--11111111--33333333----||
D||----77777777--77777777------------------------||

e||----------------||
B||----------------||
G||----------------||
D||----0-0-0-xx----||
A||----0-0-0-xx----||
D||----0-0-0-xx----||

Sweet temptress! I can see it in your eyes,
you're moving on without me! So it ends tonight.
I guess this is goodbye!
Selfishly you say you're better off without me.
And it ends tonight. Well baby save your breath.
e||--------------------------||
B||--------------------------||    
G||--------------7777--------|| \/|_|
D||----88888888--77777777----|| /\  |
A||----88888888--55557777----||
D||----88888888------7777----||

Imprisoned soul seized in the chamber of feculent horror.
Suffer all you must but suffer silently.
Still your cursed tongue, stay your blighted abandon.
In your eternal death you hunger for rotten mire.
For in your mortal life it was this which was your gift to man.
Prepare to walk hand in hand with the damned.
God can't help you and angels won't save you!
Your unrequited prayers will be in bane of your existence!
Prepare to walk hand in hand with the damned!
e||-------------------------------------------||
B||----6---------5---------1---------5---6----||     _  (It's just
G||----7---------5---------3---------5---6----||  \/ _|  some plucking
D||----7---------5---------3---------5---7----||  /\|_   of these chords.
A||----5---------3---------1---------3---4----||         I think.)
D||-------------------------------------------||

I am poisonous!
Is there a way for me to say that you should stay?!
I need to know you'll miss me when I'm gone.
I'll cherish you until the day I die!
A twisted way to make you mine!
e||----------------------------------------------||
B||----------------------------------------------||     _
G||----77777777--55555555--33333333--55556666----||  \/ _|
D||----77777777--55555555--33333333--55557777----||  /\|_
A||----55555555--33333333--11111111--33334444----||
D||----------------------------------------------||

e||----------------||
B||----------------||
G||----------------||
D||----0-0-0-xx----||
A||----0-0-0-xx----||
D||----0-0-0-xx----||

I can see it in your eyes, you're moving on without me.
So it ends tonight. I guess this is goodbye!
Selfishly you say you're better off without me.
And it ends tonight. Well baby save your breath.
e||--------------------------||
B||--------------------------||    
G||--------------7777--------|| \/|_|
D||----88888888--77777777----|| /\  |
A||----88888888--55557777----||
D||----88888888------7777----||

e||---------------------||
B||---------------------||
G||-------7-9-10-9-7----||
D||----7----------------||
A||----7----------------||
D||----7----------------||

Won't you please have mercy?!
Before you push me away let me try to change your mind.
e||----------------------------------------------||
B||----------------------------------------------||
G||----33-x-55-x-7777777---33-x-53-x-77777777----||
D||----33-x-55-x-7777777---33-x-53-x-77777777----||
A||----11-x-33-x-5555555---11-x-33-x-44444444----||
D||----------------------------------------------||

Oh wanderer!
e||----------------------------------------||
B||----------------------------------------||
G||----33-x-55-x-77-x-55---33333333--------||
D||----33-x-55-x-77-x-55---33333333--0~----||
A||----11-x-33-x-55-x-33---11111111--0~----||
D||----------------------------------0~----||

f you think this is fun just wait until I'm done! 
e||-------------------------------------------||
B||-------------------------------------------||
G||-------------------------------------------||
D||-------------------------------88887777----||
A||----55555555-77777777-88888888-------------||
D||-------------------------------------------||

////////////////////////////////////////////////////////////////

04. Beyond the Sacred Glass

Intro:
Guitar 1
e||-------------------------------------||
B||-------------------------------------||
G||-------------------------------------||----
D||--------77---------------------------||    |
A||----5h7-----5-(0)-----5h7-88-7-(0)---||    |
D||-------------------------------------||    |
Guitar 2                                      |- Repeat til 1:05
e||----------------||                         | (the zero's are not played
B||----------------||                         | until 0:49)
G||---777777777----||-------------------------
D||---xxxxxxxxx----||
A||---555555555----||
D||----------------||

Intro continued...
Guitar 3
e||--------------------------------------------------||
B||--------------------------------------------------||
G||--------------------------------------------------||
D||----3~----5~----7~--------3~----5~----7~-----5----||
A||----3~----5~----7~--------3~----5~----7~-----5----||
D||----3~----5~----7~--------3~----5~----7~-----5----||
                                                * - do not ring
e||----------------------------------------||
B||----------------------------------------||
G||----------------------------------5~----||
D||----333333333333-5~--777777777777-5~----||
A||----333333333333-5~--777777777777-3~----||
D||----333333333333-5~--777777777777-------||

e||-------------------------------------||
B||-------------------------------------||
G||-------------------------------------||
D||----333333333333-7~--555555566666----||
A||----333333333333-7~--555555577777----||
D||----333333333333-7~--555555566666----||

Quietly I am screaming for help. I calm down and steady myself
Collapse to the ground when I realize I can't breathe
Could this be happening? What's happening to me?

All the walls are closing in on me. And confusion makes it hard to see
Still my pounding heart is bleeding for you

I know the truth. And I start to sweat, sweat, sweat, sweat
Why the hell am I here? I start to sweat, sweat, sweat, sweat
Have I succumbed to fear?
e||-------------------------------------------||
B||-------------------------------------------||
G||-----------------5555----------7777--------|| \/ |_| (on the 4th loop
D||----77777777-55555555-33333333-77775555----|| /\   |  do not palm mute
A||----77777777-55553333-33333333-55555555----||         the last 4 (555))
D||----77777777-5555-----33333333-----5555----||
       ........ ........ ........ ........

Why am I trying the undying? A ghost of such elegance
Oh why am I racing to be facing, a vision of something so perfect?
e||--------------------------------------||
B||--------------------------------------||    _
G||--------------------5~--54------------|| \/ _|
D||----7~--75--3~--35--5~--54--2~--25----|| /\|_
A||----7~--75--3~--35--3~--32--2~--25----||
D||----7~--75--3~--35----------2~--25----||

I am willing to give whatever it takes
To find forgiveness for my mistakes
e||----------------------------------------||
B||----------------------------------------||
G||----------------------------------5~----||
D||----333333333333-5~--777777777777-5~----||
A||----333333333333-5~--777777777777-3~----||
D||----333333333333-5~--777777777777-------||

So I'm going to take a chance
And invite the unknown to a deadly dance
e||-------------------------------------||
B||-------------------------------------||
G||-------------------------------------||
D||----333333333333-7~--555555566666----||
A||----333333333333-7~--555555577777----||
D||----333333333333-7~--555555566666----||

I have laid eyes on you. And yet it does not seem as if the earth moved
I know the truth. And I start to sweat, sweat, sweat, sweat
I will have you tonight! I start to sweat, sweat, sweat, sweat
You will be mine tonight!
e||-------------------------------------------||
B||-------------------------------------------||     _
G||-----------------5555----------7777--------|| \/  _| (it's quiet at first
D||----77777777-55555555-33333333-77775555----|| /\ |_   then palm mute on
A||----77777777-55553333-33333333-55555555----||         the next loop)
D||----77777777-5555-----33333333-----5555----||
       ........ ........ ........ ........

Why am I trying the undying? A ghost of such elegance
Oh why am I racing to be facing, a vision of something so perfect?
e||--------------------------------------||
B||--------------------------------------||    _
G||--------------------5~--54------------|| \/ _|
D||----7~--75--3~--35--5~--54--2~--25----|| /\|_
A||----7~--75--3~--35--3~--32--2~--25----||
D||----7~--75--3~--35----------2~--25----||

I am willing to give whatever it takes
To find forgiveness for my mistakes
e||----------------------------------------||
B||----------------------------------------||
G||----------------------------------5~----||
D||----333333333333-5~--777777777777-5~----||
A||----333333333333-5~--777777777777-3~----||
D||----333333333333-5~--777777777777-------||

So I'm going to take a chance
And invite the unknown to a deadly dance
e||-------------------------------------||
B||-------------------------------------||
G||-------------------------------------||
D||----333333333333-7~--555555566666----||
A||----333333333333-7~--555555577777----||
D||----333333333333-7~--555555566666----||

As I rise to conquer the demons
I sense that the darkness awaits!
||---------------------------||
B||---------------------------||
G||---------------------------|| \/ |_|
D||----7533-7533-7533-7533----|| /\   |
A||----7533-7533-7533-7533----||
D||----7533-7533-7533-7533----||

Solo:
e||-----------------------------||
B||-----------------------------||     _
G||--------------------55-------|| \/   | (I don't know this part.
D||----333333333-77777-55555----|| /\   | but these are the chords)
A||----333333333-77777-33555----||
D||----333333333-77777---555----||

e||---------------------------------||
B||---------------------------------||
G||---------------------------------||
D||----333333333-3-3-3-3-3-3-3-3----||
A||----333333333-3-3-3-3-3-3-3-3----||
D||----333333333-3-3-3-3-3-3-3-3----||

I am willing to give whatever it takes
To find forgiveness for my mistakes
e||----------------------------------------||
B||----------------------------------------||
G||----------------------------------5~----||
D||----333333333333-5~--777777777777-5~----||
A||----333333333333-5~--777777777777-3~----||
D||----333333333333-5~--777777777777-------||

So I'm going to take a chance
And invite the unknown to a deadly dance
e||-------------------------------------||
B||-------------------------------------||
G||-------------------------------------||
D||----333333333333-7~--555555566666----||
A||----333333333333-7~--555555577777----||
D||----333333333333-7~--555555566666----||

I am willing to give whatever it takes
To find forgiveness for my mistakes
e||----------------------------------------||
B||----------------------------------------||
G||----------------------------------5~----||
D||----333333333333-5~--777777777777-5~----||
A||----333333333333-5~--777777777777-3~----||
D||----333333333333-5~--777777777777-------||

So I'm going to take a chance
And invite the unknown to a deadly dance
e||-------------------------------------||
B||-------------------------------------||
G||-------------------------------------||
D||----333333333333-7~--555555566666----||
A||----333333333333-7~--555555577777----||
D||----333333333333-7~--555555566666----||

As I rise to conquer the demons
I sense that the darkness awaits! 
Outro:
e||---------------------------||
B||---------------------------||
G||---------------------------|| \/ |_|
D||----7533-7533-7533-7533----|| /\   |
A||----7533-7533-7533-7533----||
D||----7533-7533-7533-7533----||

////////////////////////////////////////////////////////////////

05. The Temptress

My love, try to understand me when I say you torture me.
Your lips they beg for me to get you alone.
I want you to know it's the sway of your hips.
You taste so sweet cruel temptress.
e||------------------------------------------||
B||------------------------------------------||    _
G||-----------------------7-7-7-7-7-7-7-7----|| \/ _|
D||----8-8-8-8-8-8-8-8----7-7-7-7-7-7-7-7----|| /\ _|
A||----8-8-8-8-8-8-8-8----5-5-5-5-5-5-5-5----||
D||----8-8-8-8-8-8-8-8-----------------------||

I'm at your feet.
I can tell by the way you move that you want me to want you.
e||----------------------------||
B||----------------------------||
G||----------5~----------3~----||
D||----0~----5~----3~----3~----||
A||----0~----3~----3~----1~----||
D||----0~----------3~----------||

Are you happy now that I've figured out I was just the victim?!
In a game of lies and lustful tension?
e||-------------------------------------------||
B||-------------------------------------------||     _
G||-------------33333333----------55555555----|| \/  _|
D||----77777777-33333333-33333333-55555555----|| /\ |_
A||----77777777-11111111-33333333-33333333----||
D||----77777777----------33333333-------------||

e||-----------------------||
B||-----------------------||
G||-----------------------||
D||----8-8-8-8-8-8-8-8----|| (played quietly)
A||----8-8-8-8-8-8-8-8----||
D||----8-8-8-8-8-8-8-8----||

Your lips they beg for me to get you alone.
I want you to know its the sway of your hips.
You taste so sweet, cruel temptress.
e||------------------------------------------||
B||------------------------------------------||     _
G||-----------------------7-7-7-7-7-7-7-7----|| \/  _|
D||----8-8-8-8-8-8-8-8----7-7-7-7-7-7-7-7----|| /\ |_
A||----8-8-8-8-8-8-8-8----5-5-5-5-5-5-5-5----|| 
D||----8-8-8-8-8-8-8-8-----------------------||

I'm at your feet.
I can tell by the way you move that your want me to want you.
e||----------------------------||
B||----------------------------||
G||----------5~----------3~----||
D||----0~----5~----3~----3~----||
A||----0~----3~----3~----1~----||
D||----0~----------3~----------||

Are you happy now that I've figure out that I was just a victim?!
In a game of lies and lustful tension? I can't believe I fell for you!
I was wrong, I am so confused. A foolish mistake!
e||-------------------------------------------||
B||-------------------------------------------||    
G||-------------33333333----------55555555----|| \/ |_|
D||----77777777-33333333-33333333-55555555----|| /\   |
A||----77777777-11111111-33333333-33333333----||
D||----77777777----------33333333-------------||
                                        .. (palm mute only on 2nd loop)
e||---------||
B||---------||
G||---------||
D||----0~---||
A||----0~---||
D||----0~---||

I gaze across the chasm that divides me from her, my prize.
And drink in her beauty.
I let the heady aroma of perfume riding on the hot wind saturate me.
I train my ears to the creaking of the bridge spamming the gap to her.
I throw caution into that wind of passion and continue down the path.
The path to the unknown.

Guitar 1
e||-----------------------------------------------------||
B||-----------------------------------------------------||
G||-----------------------------------------------------||
D||-------7-7h8--7-------------3-2~-2h3-2p0-0~-2h3------||--
A||----5-8-8----8-8--1~----3-5---------------------4----||  |     _
D||-----------------------------------------------------||  | \/  _|
Guitar 2                                                    | /\ |_
e||-----------------------------------------------------||  |
B||-----------------------------------------------------||  |
G||----7~------------3~----5~----------------------6~---||--
D||----7~------------3~----5~---------------7~-----7~---||
A||----5~------------1~----3~---------------7~-----4~---||
D||-----------------------------------------7~----------||

I'm losing control and I want all of you. I ache to swallow you.
I'm losing control, you're body screams for me, it's destroying me!
e||----------------------------------------------||
B||----------------------------------------------||     _
G||----77777777--33333333--55555555------6666----|| \/  _|
D||----77777777--33333333--55555555--77777777----|| /\ |_
A||----55555555--11111111--33333333--77774444----||
D||----------------------------------7777--------||

I can not resist the temptress of the night!
I'm coming for you!, I want you, I need you!
As the earth quakes I will deflower you!
Oh how my head swims, oh how my heart yearns!
I'm coming for you!
Our flesh will become one and we'll never speak of what we've become!
It's what you want.
e||--------------------------------------||
B||--------------------------------------||     _
G||----------------------55555555--------|| \/  _| (I can't figure out the
D||----00000000-(8)~-----55555555-(7)~---|| /\ |_   lead part, you can just
A||----00000000-(8)~-----33333333-(7)~---||         strum the 8 and 7 if you
D||----00000000-(8)~--------------(7)~---||         want)

I'm gone!
(short lead part)

I'm gone! I'm gone!
e||------------------------------------||
B||------------------------------------||
G||------------------------------------||
D||----0-------8--00000000-00000000----||
A||----0/slide/8--00000000-00000000----||
D||----0-------8--00000000-00000000----||

So it seems that we were nothing. I'm giving up!
e||-------------------------------------||
B||-------------------------------------||    
G||----22222222-33333333-55555555-5~----|| (Strum softly)
D||----22222222-33333333-33333333-5~----||
A||----00000000-11111111-33333333-3~----||
D||----------------------33333333-------||

Are you happy now that I've figured out that I was just a victim?!
In a game of lies and lustful tension?
I can't believe I fell for you!
e||-------------------------------------------||
B||-------------------------------------------||     _
G||-------------33333333----------55555555----|| \/  _|
D||----77777777-33333333-33333333-55555555----|| /\  _|
A||----77777777-11111111-33333333-33333333----||
D||----77777777----------33333333-------------||
                                        .. (palm mute only on 2nd loop)

I was wrong, I am so confused. A foolish mistake.
e||-------------------------------------------------------||
B||-------------------------------------------------------||
G||-------------33333333----------55555555-55555555-------||
D||----77777777-33333333-33333333-55555555-55555555-0~----||
A||----77777777-11111111-33333333-33333333-33333333-0~----||
D||----77777777----------33333333-------------------0~----||

////////////////////////////////////////////////////////////////

06. Circle VII: Sins of the Lion

Oh, the violence..
The ocean beckons with it's gaze
e||-----------------------------------------------||
B||-----------------------------------------------||
G||-----------------------------333-3-333-3-33----||
D||-------------000-0-000-0-00--333-3-333-3-33----||
A||-------------000-0-000-0-00--111-1-111-1-11----||
D||----/slide/--000-0-000-0-00--------------------||
                ...   ...       ...   ...

Pulling me beneath the waves
Their fury is second to none!
e||----------------------------------||
B||----------------------------------||
G||----555-5-555-5-55----------------||
D||----555-5-555-5-55--777-7-77-7----||
A||----333-3-333-3-33--777-7-77-7----||
D||--------------------777-7-77-7----||
       ...   ...       ...   ..

Oh the violence..
It's clawing at my burning skin
e||--------------------------------------||
B||--------------------------------------||
G||--------------------333-3-333-3-33----||
D||----000-0-000-0-00--333-3-333-3-33----||
A||----000-0-000-0-00--111-1-111-1-11----||
D||----000-0-000-0-00--------------------||
       ...   ...       ...   ...

Filling my heart with it's sin,
human reason is washed away!
e||-------------------------------||
B||-------------------------------||
G||----555-5-555-5-55-------------||
D||----555-5-555-5-55--7-7-7-7----||
A||----333-3-333-3-33--7-7-7-7----||
D||--------------------7-7-7-7----||
       ...   ...

Am I the first to be fooled by
your dirty little trick?
I guess I should have seen this coming
e||------------------------------------------------||
B||------------------------------------------------||     _
G||------------------------------------------------|| \/  _| (not 100%
D||---------------------------3---3---3---3---3----|| /\ |_   accurate)
A||----058-058-058-058-058---3---3---3---3---3-----||
D||-------------------------3---3---3---3---3------||

I will not forget
e||---------------------------------------------------||
B||---------------------------------------------------||
G||---------------------------------------------------||
D||---------------------------------------------------||
A||---------------------------------------------------||
D||----00000000-00000000-1010101010101010-88888888----||
       
I will not forget (Is washed away)                  
e||--------------------------------------------------------||
B||--------------------------------------------------------||
G||--------------------------------------------------------||
D||--------------------------------------------10-8-7h8----||
A||--------------------------------------------10-8-7h8----|| 
D||----00000000-00000000-1010101010101010-8888-10-8-7h8----||

I'm the one who has to swallow water,
that's what I get for chasing after you!
You should be hanging by your neck,
swinging there silently!
e||------------------------------------------------------------------||
B||------------------------------------------------------------------||
G||------------------------------------------------------------------||
D||------------------------------------------------------------------||
A||----00-00-00-00-00-00-00-00-00-00-00-00-00-00-00-00-00-00-00-0----||
D||----00-00-00-00-00-00-00-00-00-00-00-00-00-00-00-00-00-00-00-0----||

I can't stop the bleeding
Tell me that you want me if you need me..
Tell me that you love me if you want me..
Your dying eyes tell a story of poisonous passion
Telling me you want me, do you want me?
Telling me you want me, do you love me?
e||-------------------------------------------||
B||-------------------------------------------||     _
G||----77777777-55555555----------------------|| \/  _|
D||----77777777-55555555-77777777-88888888----|| /\ |_
A||----55555555-33333333-77777777-88888888----||
D||----------------------77777777-88888888----||

It is quite clear you despise me, by showing your face here
And you never even told me 
e||------------------------------------------------||
B||------------------------------------------------||     _
G||------------------------------------------------|| \/  _| (not 100%
D||---------------------------3---3---3---3---3----|| /\ |_   accurate)
A||----058-058-058-058-058---3---3---3---3---3-----||
D||-------------------------3---3---3---3---3------||

why you disappeared!
e||---------------------------------------------------||
B||---------------------------------------------------||
G||---------------------------------------------------||
D||---------------------------------------------------||
A||---------------------------------------------------||
D||----00000000-00000000-1010101010101010-88888888----||
       
why you disappeared! (Is washed away)                  
e||--------------------------------------------------------||
B||--------------------------------------------------------||
G||--------------------------------------------------------||
D||--------------------------------------------10-8-7h8----||
A||--------------------------------------------10-8-7h8----|| 
D||----00000000-00000000-1010101010101010-8888-10-8-7h8----||

I'm the one who has to swallow water,
that's what I get for chasing after you!
You should be hanging by your neck,
swinging there silently!
e||------------------------------------------------------------------||
B||------------------------------------------------------------------||
G||------------------------------------------------------------------||
D||------------------------------------------------------------------||
A||----00-00-00-00-00-00-00-00-00-00-00-00-00-00-00-00-00-00-00-0----||
D||----00-00-00-00-00-00-00-00-00-00-00-00-00-00-00-00-00-00-00-0----||

I can't stop the bleeding
Tell me that you want me if you need me..
Tell me that you love me if you want me..
Your dying eyes tell a story of poisonous passion
Telling me you want me, do you want me?
Telling me you want me, do you love me?
e||-------------------------------------------||
B||-------------------------------------------||     _
G||----77777777-55555555----------------------|| \/  _|
D||----77777777-55555555-77777777-88888888----|| /\ |_
A||----55555555-33333333-77777777-88888888----||
D||----------------------77777777-88888888----||

Bridge:
A bone chilling cry erupts!
The tides of sin are stained with blood!
(Note: I don't know about this part again. But I think it's D - Bb)

I can't stop the bleeding
Tell me that you want me if you need me..
Tell me that you love me if you want me..
Your dying eyes tell a story of poisonous passion
Telling me you want me, do you want me?
Telling me you want me, do you love me?
e||-------------------------------------------||
B||-------------------------------------------||     _
G||----77777777-55555555----------------------|| \/  _|
D||----77777777-55555555-77777777-88888888----|| /\ |_
A||----55555555-33333333-77777777-88888888----||
D||----------------------77777777-88888888----||

You will be sorry when
He spills the blood from your throat!
e||---------------------------------------------||
B||---------------------------------------------||
G||---------------------------------------35----||
D||----000-0-000-0-00-00---000-0-000-0-00-35----||
A||----000-0-000-0-00-00---000-0-000-0-00-13----||
D||----000-0-000-0-00-00---000-0-000-0-00-------||
       ...   ...   ..      ...   ...   ..

You'll be torn limb from limb, tramp!
e||---------------------------------------||
B||---------------------------------------||
G||---------------------------------------||
D||----000-0-000-0-00-00---000-0-000-0----||
A||----000-0-000-0-00-00---000-0-000-0----|| 
D||----000-0-000-0-00-00---000-0-000-0----||
       ...   ...   ..      ...   ...  

There will be hell to pay, hell to pay! 
e||-----------------------------||
B||-----------------------------||
G||-----------------5555--35----||
D||----7777777-8888-5555--35----||
A||----5555555-5555-5555--13----||
D||-----------------------------||

e||------------------------------||
B||------------------------------||
G||-----------------5555--357----||
D||----7777777-8888-5555--357----||
A||----5555555-5555-5555--135----||
D||------------------------------||

////////////////////////////////////////////////////////////////

07. Vestige

Washed on a shore enchanted lies and I am breathless
Struggling for reason
How could it be such a wondrous place is trapped in silence
Give them redemption
e||-------------------------------------------------------||
B||-------------------------------------------------------||    _
G||-------------------------------------------------------|| \/ _| (played
D||-------7~-8~-5~----3~-7~-3~-------7~-------0~----------|| /\|_   slowly)
A||----5~----------3~----------2~-5~----5~-1~----0~-4~----||
D||-------------------------------------------------------||

Time is melting away, I can't explain but my eyes are begging to stay
I must say a sunny day helps to push the memories away
e||---------------------------------------------------------||
B||---------------------------------------------------------||     _
G||-------77-----77-----55-----55-----44-----44----3---5----|| \/  _|
D||-------77-----77-----55-----55-----55-----55---3---5-----|| /\ |_
A||----5~----(5)-----3~----(3)-----2~----(2)-----1---3------||
D||---------------------------------------------------------||

I can't imagine my leaving here..
It sounds so peaceful living in solace
A perfect vision of ecstasy, a dreamy palace
Home to the soulless..
e||-------------------------------------------------------||
B||-------------------------------------------------------||    _
G||-------------------------------------------------------|| \/ _|
D||-------7~-8~-5~----3~-7~-3~-------7~-------0~----------|| /\|_
A||----5~----------3~----------2~-5~----5~-1~----0~-4~----||
D||-------------------------------------------------------||

Time is melting away, I can't explain but my eyes are begging to stay
I must say a sunny day helps to push the memories away
e||---------------------------------------------------------||
B||---------------------------------------------------------||     _
G||-------77-----77-----55-----55-----44-----44----3---5----|| \/  _|
D||-------77-----77-----55-----55-----55-----55---3---5-----|| /\ |_
A||----5~----(5)-----3~----(3)-----2~----(2)-----1---3------||
D||---------------------------------------------------------||

Walk along the shore of an ocean of rage..
Gazing in amazement at each screaming wave
Everywhere I look there's agony and pain..
What's the point of fighting when there's nothing to save?
e||---------------------------------------------------||
B||---------------------------------6865--------7~----||    _
G||-------99---99---99-------------7-----------7------|| \/ _|
D||-------------------------------7-----------7-------|| /\|_
A||----67----6----5----3~----5~----------5~-----------||
D||----67----6----5----3~-----------------------------||

Time is melting away, I can't explain but my eyes are begging to stay
I must say a sunny day helps to push the memories away
Caution must be obeyed, on an island of decayed..
e||---------------------------------------------------------||
B||---------------------------------------------------------||    
G||-------77-----77-----55-----55-----44-----44----3---5----|| \/ |_|
D||-------77-----77-----55-----55-----55-----55---3---5-----|| /\   |
A||----5~----(5)-----3~----(3)-----2~----(2)-----1---3------||
D||---------------------------------------------------------||

Outro:
e||-------------------------------------------------------||
B||-------------------------------------------------------||    _
G||-------------------------------------------------------|| \/ _|
D||-------7~-8~-5~----3~-7~-3~-------7~-------0~----------|| /\|_
A||----5~----------3~----------2~-5~----5~-1~----0~-4~----||
D||-------------------------------------------------------||

////////////////////////////////////////////////////////////////

08. Lullaby of the Crucified

My angel close your eyes, I'll be your lover tonight.
Pitiful lullaby, I'll be your lover tonight.
e||-----------------------------------------------||
B||-----------------------------------------------||     _
G||------2-2-2-----2-2-52----2-2-2-----22---52----|| \/  _|
D||-----3-3-3-3---2-2-2-----3-3-3-3---3----3------|| /\ |_
A||----1~--------0~--------5~--------3------------||
D||-----------------------------------------------||

My own misery is taunting me.
The air stings my lungs, I can barely see.
Wicked eyes surrounding me, the trees are watching silently.
I could try to run but baby what's the point?
e||-------------------------------------------||
B||-------------------------------------------||    _
G||----------------------77777777-5555--------|| \/ _|
D||----88888888-88887777-77777777-55557777----|| /\|_
A||----88888888-88887777-55555555-33337777----||
D||----88888888-88887777--------------7777----||

I may never know
(I don't see the point.)
why I let you go.
e||------------------------------------------------||
B||------------------------------------------------||
G||----33-xx-55-xx-77-xx-5577---33-xx-55-xx--------||
D||----33-xx-55-xx-77-xx-5577---33-xx-55-xx--7~----||
A||----11-xx-33-xx-55-xx-3355---11-xx-33-xx--7~----||
D||------------------------------------------7~----||

My body is aching. I'm losing my mind! There's nothing to hold onto.
My angel close your eyes, I'll be your lover tonight.
I'm tired of trying. I'm sick of waiting!
If there's nothing that I can do.
A pitiful lullaby to sing the tortured to sleep
e||------------------------------------------||
B||------------------------------------------||    _
G||----77777777---------33333333-33335555----|| \/ _|
D||----77777777-3577777-33333333-33335555----|| /\|_
A||----55555555-3577777-11111111-11113333----|| 
D||-------------3577777----------------------||

We could settle down and change the end.
Nothing but time, start over again.
All the little things you do that make me fall in love with you.
Have led me to this, a bittersweet abyss.
e||-------------------------------------------||
B||-------------------------------------------||    _
G||----------------------77777777-5555--------|| \/ _|
D||----88888888-88887777-77777777-55557777----|| /\|_
A||----88888888-88887777-55555555-33337777----||
D||----88888888-88887777--------------7777----||

I may never know (a vexatious kiss.) why I let you go.
e||------------------------------------------------||
B||------------------------------------------------||
G||----33-xx-55-xx-77-xx-5577---33-xx-55-xx--------||
D||----33-xx-55-xx-77-xx-5577---33-xx-55-xx--7~----||
A||----11-xx-33-xx-55-xx-3355---11-xx-33-xx--7~----||
D||------------------------------------------7~----||

My body is aching. I'm losing my mind!
There's nothing to hold onto.
My angel close your eyes, I'll be your lover tonight.
I'm tired of trying. I'm sick of waiting!
If there's nothing that I can do.
A pitiful lullaby to sing the tortured to sleep
e||------------------------------------------||
B||------------------------------------------||    _
G||----77777777---------33333333-33335555----|| \/ _|
D||----77777777-3577777-33333333-33335555----|| /\|_
A||----55555555-3577777-11111111-11113333----|| 
D||-------------3577777----------------------||

I will follow you into the night my darling eyes.
I would do anything to be lying with you as I watch you
e||-----------------------------------------------||
B||-----------------------------------------------||    _
G||----7~----~-----5~-----------7~----------5~----|| \/ _|
D||----7~----3~----5~----2-3----7~----3~----5~----|| /\|_
A||----5~----3~----3~----2-3----5~----3~----3~----||
D||----------3~----------2-3----------3~----------||

Dream!
I have been reborn! I have broken free! I'm free! I'm free!
You can't deny me, do not defy me! I'm drunk on lust and sovereignty!
Abandon all hope for beyond time I can stand!
e||-------------------------------------------||
B||-------------------------------------------||
G||-------------------------------77553322----||--
D||----88888888-88888888-88888888-77553322----||  |
A||----88888888-88888888-88888888-55331100----||  |    _
D||----88888888-88888888-88888888-------------||  | \/|_  (palm mute on
                                                  | /\ _|  1st-2nd time)
e||-------------------------------------------||  |
B||-------------------------------------------||  |
G||-------------------------------------77----||  |
D||----00000000-00000000-00000000-55778877----||-- 
A||----00000000-00000000-00000000-55778855----||
D||----00000000-00000000-00000000-557788------|| 

I have been reborn! Darling, tonight we say goodbye!
Sing a touching lullaby and we'll watch the angels cry. 
e||------------------------------------------||
B||------------------------------------------||
G||-------------------------------7-5-3-2----||
D||----8~----------------88~------7-5-3-2----||
A||----8~----------------88~------5-3-1-0----||
D||----8~----------------88~-----------------||

e||------------------------------------------||
B||------------------------------------------||
G||-------------------------------------7----||
D||----0~----------------00~------5-7-8-7----||
A||----0~----------------00~------5-7-8-5----||
D||----0~----------------00~------5-7-8------||

e||----------------------------------------------||
B||----------------------------------------------||
G||-------------------------------7-5-3-2--------||
D||----8~----------------88~------7-5-3-2--0~----||
A||----8~----------------88~------5-3-1-0--0~----||
D||----8~----------------88~---------------0~----||

////////////////////////////////////////////////////////////////

09. Before Him All Shall Scatter

No tab. Only a short speech and background violin.

////////////////////////////////////////////////////////////////

10. Labyrinth

Intro:
e||--------------------------------------------------||
B||--------------------------------------------------||
G||----6~---7~---7-6--7-6----6~---7~---7-6-----------||
D||----4~---7~---5----7------4~---7~---5----77777----||
A||----2~---5~---5----7------2~---5~---5----99999----||
D||--------------5----7----------------5----77777----||

I'm getting stronger and I'm no longer fighting by myself.
For now locked doors are opening for me!
No turning back, I have to get out, get out, get out!
Before it's too late. My child, I am the way!
e||--------------------------------------------||
B||--------------------------------------------||     _
G||--------------------------------------------|| \/  _|
D||----99999999-77777777-55555555-44--44--4----|| /\ |_
A||----99999999-77777777-55555555-44--44--4----||
D||----99999999-77777777-55555555-44--44--4----||

Do you think it's wrong of me to long for you despite how you taste?
I'm not the one to
e||---------------------------||
B||---------------------------||     _
G||--------------7777---------|| \/  _|
D||----99xx-55xx-7777-7777----|| /\ |_
A||----99xx-55xx-5555-7777----||
D||----99xx-55xx------7777----||

give up on you now.
I'll never leave the ground without having to let go, yeah!
Every time I try I'm further from the sky.
I wish that I could let go, I'm lost in your beautiful trance.
e||--------------------------------------------------||
B||--------------------------------------------------||     _
G||-------------------7777---------------------------|| \/  _|
D||----5555-7777-9999-7777--5555-7777-2-02-02-222----|| /\ |_
A||----5555-7777-9999-5555--5555-7777-2-02-02-222----||
D||----5555-7777-9999-------5555-7777-2-02-02-222----||

Grit my teeth, you're mine, I'll make it painless!
Say your last goodbyes, I'll make it painless!
Take a breath and I will make it painless!
Guess again, guess again, guess again!
e||------------------------------------||
B||------------------------------------||     _
G||-----------666666--------6666s77----|| \/  _|
D||----555-57-xxxxxx-999-97-xxxxxxx----|| /\ |_
A||----555-57-444444-999-97-4444s55----||
D||----555-57--------999-97------------||

I'm exhausted. I have to get up, get up, get up!
Get up on my feet. My sweet, I am the light!
e||--------------------------------------------||
B||--------------------------------------------||
G||--------------------------------------------||
D||----99999999-77777777-55555555-44--44--4----||
A||----99999999-77777777-55555555-44--44--4----||
D||----99999999-77777777-55555555-44--44--4----||

Do you think it's wrong of me to long for you despite how you taste?
I'm not the one to
e||---------------------------||
B||---------------------------||     _
G||--------------7777---------|| \/  _|
D||----99xx-55xx-7777-7777----|| /\ |_
A||----99xx-55xx-5555-7777----||
D||----99xx-55xx------7777----||

give up on you now.
I'll never leave the ground without having to let go, yeah!
e||--------------------------------------------------||
B||--------------------------------------------------||
G||-------------------7777---------------------------|| 
D||----5555-7777-9999-7777--5555-7777-2-02-02-222----||
A||----5555-7777-9999-5555--5555-7777-2-02-02-222----||
D||----5555-7777-9999-------5555-7777-2-02-02-222----||

Every time I try it just gets harder to find.
Darling cry for me!
e||-----------------------------------------------||
B||-----------------------------------------------||
G||-------------------7777------------22222222----||
D||----5555-7777-9999-7777--5555-7777-22222222----||
A||----5555-7777-9999-5555--5555-7777-22222222----||
D||----5555-7777-9999-------5555-7777-22222222----||

Call to me, there's nowhere to run!
Sing to me, there's no way to climb!
e||-------------------------------------------||
B||-------------------------------22222222----||
G||----33333333-44444444-55555555-xxxxxxxx----||
D||----22222222-22222222-22222222-22222222----||
A||----22222222-22222222-22222222-22222222----||
D||----22222222-22222222-22222222-22222222----||

There's nowhere to hide, this is where I'll die!
My God, why!?
e||----------------------55555555----||
B||----33333333-44444444-xxxxxxxx----||
G||----xxxxxxxx-xxxxxxxx-xxxxxxxx----||
D||----22222222-22222222-22222222----||
A||----22222222-22222222-22222222----||
D||----22222222-22222222-22222222----||

In reverie I smile imagining when I will lie close to you.
And we won't have to worry but watch the sky dance for us instead.

Guitar I
e||---------------------------------------------||
B||-----5-5-57~---5-5-57~---5-5-57s10-8~-7~-----||    
G||---------------------------------------------|| \/ |_| (on 2nd loop 
D||----7-7-7-----7-7-7-----7-7-7----------------|| /\   |  do not play the
A||---------------------------------------------||         last 7~)
D||---------------------------------------------||

Guitar II
e||----------------------------------------------||
B||----------------------------------------------||    
G||----4444444---7777777-----------------7777----|| \/ |_| (ring only on 
D||----4444444---7777777---5555555---77777777----|| /\   |  1st-2nd time)
A||----2222222---5555555---5555555---77775555----||
D||------------------------5555555---7777--------||

I think I want to I want to sing you to sleep,
e||-------------------------------------------||
B||-------------------------------------------||
G||----77777777-------------------77776666----||
D||----77777777-55555555-77777777-77777777----||
A||----55555555-55555555-77777777-55554444----||
D||-------------55555555-77777777-------------||

with you I want to dream.
e||----------------------------||
B||----------------------------||
G||----------------------------||
D||----44444444-55555555-7~----||
A||----44444444-55555555-7~----||
D||----44444444-55555555-7~----||

I'm not the one to
e||------------------------------------||
B||------------------------------------||
G||-----------666666--------6666s77----||
D||----555-57-xxxxxx-999-97-xxxxxxx----||
A||----555-57-444444-999-97-4444s55----||
D||----555-57--------999-97------------||

give up on you now.
I'll never leave the ground without having to let go, yeah!
Every time I try I'm further from the sky.
I wish that I could let go, I'm lost in your beautiful trance.
e||--------------------------------------------------||
B||--------------------------------------------------||     _
G||-------------------7777---------------------------|| \/  _|
D||----5555-7777-9999-7777--5555-7777-2-02-02-222----|| /\ |_
A||----5555-7777-9999-5555--5555-7777-2-02-02-222----||
D||----5555-7777-9999-------5555-7777-2-02-02-222----||

Suddenly I'm floating so far from you.
e||-----------------------------------------------||
B||-----------------------------------------------||
G||-----------------------------------------------||
D||----9~----7~----5~--2~-4~-7~-2~----4~----5~----||
A||----9~----7~----5~-----------2~----4~----5~----||
D||----9~----7~----5~-----------2~----4~----5~----||

////////////////////////////////////////////////////////////////

11. The Fiend

Intro:
e||-----------------------------------------------||
B||-----------------------------------------------||     _
G||-------------5555-------3333~----5555----------|| \/  _|
D||----0000~----5555-7777~-3333~----5555-7777~----|| /\ |_
A||----0000~----3333-7777~-1111~----3333-7777~----||
D||----0000~---------7777~---------------7777~----||

Blessed smoke bellows from the beast!
Bow to the gears and worship the machine!
e||------------------------------||
B||------------------------------||
G||------------------------------||
D||----0-0-0-0-0-0-0-0-----------||
A||----0-0-0-0-0-0-0-0--pause----||
D||----0-0-0-0-0-0-0-0-----------||

Is it so? This can't be happening.. Why can't they see?
e||---------------------------------------------------------------||
B||---------------------------------------------------------------||
G||--------------------------33333333---------------55553333------||
D||----/-----/---0---0---0---33333333---0---0---0---55553333-0----||
A||----/slide/---0---0---0---11111111---0---0---0---33331111-0----||
D||----/-----/---0---0---0--------------0---0---0------------0----||

Seas of children are bound, gagged, and led into the flames...
e||------------------------------------||
B||------------------------------------||
G||------------------------------------||
D||----0-0----0-0----0---0----77777----||
A||----0-0----0-0----0---0----77777----||
D||----0-0----0-0----0---0----77777----||

Blind are leading the blind into a disaster
I'm the only one who seems to care...
If you decide to worship the chaos..
I will not wait and watch as you burn...
e||-------------------------------------------||
B||-------------------------------------------||     _
G||----33333333-77777777-55555555-5555--------|| \/  _|
D||----33333333-77777777-55555555-55553355----|| /\ |_
A||----11111111-55555555-33333333-33333355----||
D||-----------------------------------3355----||

e||-----------------------------------------------||
B||-----------------------------------------------||
G||-------------5555-------3333~----5555----------||
D||----0000~----5555-7777~-3333~----5555-7777~----||
A||----0000~----3333-7777~-1111~----3333-7777~----||
D||----0000~---------7777~---------------7777~----||

All must kneel before the alter, the veiled will be exalted
We are the flock! They do not hear a work I say
In the God's harbor all shall rest, become part of the master
We are divine! I can not save them all!
e||------------------------------------------||
B||------------------------------------------||     _
G||------------------------------3333--77----|| \/  _|
D||----0000000-00000000-00000000-33335577----|| /\ |_
A||----0000000-00000000-00000000-11115555----||
D||----0000000-00000000-00000000-----55------||

Blind are leaving the blind into a disaster
I'm the only one who seems to care...
If you decide to worship the chaos..
I will not wait and watch as you burn...
e||-------------------------------------------||
B||-------------------------------------------||     _
G||----33333333-77777777-55555555-5555--------|| \/  _|
D||----33333333-77777777-55555555-55553355----|| /\ |_
A||----11111111-55555555-33333333-33333355----||
D||-----------------------------------3355----||

I will not wait and watch as you burn...
e||-------------------------------------------||
B||-------------------------------------------||     _
G||----33333333-77777777-55555555-55555555----|| \/  _|
D||----33333333-77777777-55555555-55555555----|| /\ |_
A||----11111111-55555555-33333333-33333333----||
D||-------------------------------------------||

(Should we go? They all seem so content. We should go and become part of him)
I need you to trust me now. Don't move, I'll figure this out
Forget what anyone said. Just take my hand or we'll both be dead
e||-------------------------------------------||
B||-------------------------------------------||     _
G||----33333333-33333333-77777777-77777777----|| \/  _|
D||----33333333-33333333-77777777-77777777----|| /\ |_
A||----11111111-11111111-55555555-55555555----||
D||-------------------------------------------||

Blind are leading the blind into a disaster
I'm the only one who seems to care..
If you decide to worship the chaos..
I will not wait and watch as you burn..
e||-------------------------------------------||
B||-------------------------------------------||     _
G||----33333333-77777777-55555555-5555--------|| \/  _|
D||----33333333-77777777-55555555-55553355----|| /\ |_
A||----11111111-55555555-33333333-33333355----||
D||-----------------------------------3355----||

I will not wait and watch as you burn..
e||-------------------------------------------||
B||-------------------------------------------||     _
G||----33333333-77777777-55555555-55555555----|| \/  _|
D||----33333333-77777777-55555555-55555555----|| /\ |_
A||----11111111-55555555-33333333-33333333----||
D||-------------------------------------------||

They'll never be able to see that they grave this captivity.. 
e||----------------------------------------------||
B||----------------------------------------------||
G||-------------3~--5~------------3~--5~---------||
D||----0~-------3~--5~---0~-------3~--5~---0~----||
A||----0~-------1~--3~---0~-------1~--3~---0~----||
D||----0~----------------0~----------------0~----||

////////////////////////////////////////////////////////////////

12. Welcome To The Vanity Faire

Intro:
e||----------------------------------------------------||
B||----------------------------------------------------||
G||-------------77777777-------------------------------||
D||----xxx-xxxx-77777777-44449997-55555555-777-7777----||
A||----xxx-xxxx-55555555-44449997-55555555-777-7777----||
D||----xxx-xxxx----------44449997-55555555-777-7777----||

e||-------------------------------------------||
B||-------------------------------------------||
G||----77777777-------------------------------||
D||----77777777-44449997-55555555-77777777----||
A||----55555555-44449997-55555555-77777777----||
D||-------------44449997-55555555-77777777----||

e||-------------------------------------------||
B||-------------------------------------------||
G||----33333333-55555555-33333333-55555555----||
D||----33333333-55555555-33333333-55555555----||
A||----11111111-33333333-11111111-33333333----||
D||-------------------------------------------||

I search high and low but I can't find you
Still your vexing laugh entices me
Close enough to touch but then you run away
I'm about to quit and then you say, “lose yourself in the vanity faire!”
e||---------------------------------------------------------------||
B||---------------------------------------------------------------||     _
G||----77777777-77-77-77-77-77-----------------333-333-555-555----|| \/  _|
D||----77777777-77-77-77-77-77-333-333-333-333-333-333-555-555----|| /\ |_
A||----55555555-55-55-55-55-55-333-333-333-333-111-111-333-333----||
D||----------------------------333-333-333-333--------------------||
       ........ .. .. .. .. .. ..  ..  ..  ..  ..  ..  ..  ..

Insanity is whispering to me, woah!
e||-------------------------------------------------||
B||-------------------------------------------------||
G||-------------------------------------------------||
D||----0---78---810---108750---78---810---108000----||
A||----0---78---810---108750---78---810---108000----||
D||----0---78---810---108750---78---810---108000----||
                                             ..

What I believe is just not making sense of what I see
e||----------------------------------------------||
B||----------------------------------------------||
G||----------------------------------------------||
D||----78---810---108750---78---8101010108888----||
A||----78---810---108750---78---8101010108888----||
D||----78---810---108750---78---8101010108888----||

Show me your reflection, a sly disguise, is it the girl you want to be?
A porcelain smile, you're a knockout, baby?
Drape yourself in fragile fantasy
I see your reflection, a sly disguise, and it's not the girl your want to be?
A fraudulent smile
What you see is what you've asked for,but it's never what you are
A cold-hearted tale
e||----------------------------------------------------||
B||----------------------------------------------------||     _
G||----7777-----33333333-7777-----33333333-55555555----|| \/  _|
D||----77773333-33333333-77773333-33333333-55555555----|| /\ |_
A||----55553333-11111111-55553333-11111111-33333333----||
D||--------3333--------------3333----------------------||

Lost in a maze of beautiful deception
And just like before I'm at the mercy of a phantom
When will it end? How will it end? And will you be in arms?
I just can't take anymore of this pointless search for nothing
e||------------------------------------------------------------||
B||------------------------------------------------------------||    _
G||----3333-555-5------777-7--3333-555-5--------7s5s7----------|| \/ _|
D||----3333-555-5-7777-777-7--3333-555-5-777777-7s5s7-7s5s7----|| /\|_
A||----1111-333-3-7777-555-5--1111-333-3-777777-5s3s5-7s5s7----||
D||---------------7777-------------------777777-------7s5s7----||
                                         ......

Insanity is whispering to me woah!
e||-------------------------------------------------||
B||-------------------------------------------------||
G||-------------------------------------------------||
D||----0---78---810---108750---78---810---108000----||
A||----0---78---810---108750---78---810---108000----||
D||----0---78---810---108750---78---810---108000----||
                                             ..

What I believe is just not making sense of what I see
e||----------------------------------------------||
B||----------------------------------------------||
G||----------------------------------------------||
D||----78---810---108750---78---8101010108888----||
A||----78---810---108750---78---8101010108888----||
D||----78---810---108750---78---8101010108888----||

Show me your reflection, a sly disguise, is it the girl you want to be?
A porcelain smile, you're a knockout, baby?
Drape yourself in fragile fantasy
I see your reflection, a sly disguise, and it's not the girl your want to be?
A fraudulent smile
What you see is what you've asked for,but it's never what you are
e||----------------------------------------------------||
B||----------------------------------------------------||     _
G||----7777-----33333333-7777-----33333333-55555555----|| \/  _|
D||----77773333-33333333-77773333-33333333-55555555----|| /\ |_
A||----55553333-11111111-55553333-11111111-33333333----||
D||--------3333--------------3333----------------------||

Hey hey hey!
e||---------------------------------------------||
B||---------------------------------------------||
G||----3-33-3-3-(22-0-2)-5-55-5-5-(53-2-0h2)----||
D||----3-33-3-3----------5-55-5-5---------------||
A||----1-11-1-1----------3-33-3-3---------------||
D||---------------------------------------------||

Silence, oh cruel harlot!
Silence! Your filthy tongue will be stilled!
e||---------------------------------------||
B||---------------------------------------||
G||----------(2222222)-------(0000225)----||
D||----0-00~------------0-00~-------------||
A||----0-00~------------0-00~-------------||
D||----0-00~------------0-00~-------------||

Laughter echoing, I'm unraveling tonight
e||---------------------------------------------||
B||---------------------------------------------||
G||----3-33-3-3----------5-55-5-5---------------||
D||----3-33-3-3----------5-55-5-5---------------||
A||----1-11-1-1----------3-33-3-3---------------||
D||---------------------------------------------||

Silence! I've had enough!
Silence! No longer will you stop me!
e||--------------------------------------||
B||--------------------------------------||
G||----------(2222222)-------(000022)----||
D||----0-00~------------0-00~------------||
A||----0-00~------------0-00~------------||
D||----0-00~------------0-00~------------||

Your vanity so patiently will steal your soul
You're hideous..
Mirror, mirror on the wall, a liar to us all, you'll be the one to fall
The eye of the beholder knows the truth
e||-------------------------------------------||
B||-------------------------------------------||     _
G||----33333333-55555555-33333333-55555555----|| \/  _|
D||----33333333-55555555-33333333-55555555----|| /\ |_
A||----11111111-33333333-11111111-33333333----||
D||-------------------------------------------||

Show me your reflection, a sly disguise,Is it the girl you want to be?
A porcelain smile, you're a knockout, baby!
Drape yourself in fragile fantasy
I see you reflection, a sly disguise,And it's not the girl you want to be?
A fraudulent smile
What you see is what you've asked for,but it's never what you are
e||----------------------------------------------------||
B||----------------------------------------------------||     _
G||----7777-----33333333-7777-----33333333-55555555----|| \/  _|
D||----77773333-33333333-77773333-33333333-55555555----|| /\ |_
A||----55553333-11111111-55553333-11111111-33333333----||
D||--------3333--------------3333----------------------||

What you see is what you've asked for,What you see is what you get
e||----------------------------||
B||----------------------------||
G||----33333333-55555555-3~----||
D||----33333333-55555555-3~----||
A||----11111111-33333333-1~----||
D||----------------------------||

A cold-hearted tale
e||--------------------------------------------------------------------||
B||--------------------------------------------------------------------||
G||--------------------------------------------------------------------||
D||----22-2-2-2-2-2-2-2s4-4-4-4-4-4-4s5-5-5-5-5-5-5-5s7-7-7-7-7-7-7----||
A||----22-2-2-2-2-2-2-2s4-4-4-4-4-4-4s5-5-5-5-5-5-5-5s7-7-7-7-7-7-7----||
D||----22-2-2-2-2-2-2-2s4-4-4-4-4-4-4s5-5-5-5-5-5-5-5s7-7-7-7-7-7-7----||

Attack the mirrors, shatter the prison
e||--------------------------------------------------------------------||
B||--------------------------------------------------------------------||
G||--------------------------------------------------------------------||
D||----22-2-2-2-2-2-2-2s4-4-4-4-4-4-4s5-5-5-5-5-5-5-5s7-7-7-7-7-7-7----||
A||----22-2-2-2-2-2-2-2s4-4-4-4-4-4-4s5-5-5-5-5-5-5-5s7-7-7-7-7-7-7----||
D||----22-2-2-2-2-2-2-2s4-4-4-4-4-4-4s5-5-5-5-5-5-5-5s7-7-7-7-7-7-7----||

One by one reflections fall, come on come on come on come on!
Until I destroy them all, come on come on come on come on! 
e||---------------------------||
B||---------------------------||
G||---------------------------|| \/ |_|
D||----22------22-22-22-22----|| /\   |
A||----22------22-22-22-22----||
D||----22-12s0-22-22-22-22----||
                     .. ..
e||---------||
B||---------||
G||---------||
D||----2----||
A||----2----||
D||----2----||

////////////////////////////////////////////////////////////////

13. The Wanderer

A few prisms of glass offer litter comfort in the blackness
The desolate emptiness drinking every last drop of life that's left in me
e||----------------------------------------------------------||
B||-----------0-----0-----0-----0----------------------------||     _
G||---------0-----0-----0-----0-------0-----0----------------|| \/  _|
D||-------2-----2-----2-----2-------2-----2-----1-4---1-4----|| /\ |_ 
A||-------------------------------3-----3-----2-----2--------|| (do not play
D||----(2)---------------------------------------------------||(2) on 2nd loop)

I pray for absolution, let me return to the path of a tempting lie...
Lead me towards the light
e||---------------------------||
B||---------------------------||     _
G||----6666------4444-5555----|| \/  _|
D||----6666-7777-4444-6666----|| /\ |_
A||----4444-7777-2222-3333----||
D||---------7777--------------||

Truly I've run awry
My compass is spinning in the shadows
It's funny how we believe the things that we tell ourselves to
And our hearts simply follow
e||-------------------------------------------------------||
B||--------0-----0-----0-----0----------------------------||     _
G||------0-----0-----0-----0-------0-----0----------------|| \/  _|
D||----2-----2-----2-----2-------2-----2-----1-4---1-4----|| /\ |_ 
A||----------------------------3-----3-----2-----2--------||
D||-------------------------------------------------------||

I pray for absolution, let me return to the path of a tempting lie..
Lead me towards the lights
I pray for the absolution, let me return to the path of a tempting lie..
Lead me towards the light 
e||---------------------------||
B||---------------------------||
G||----6666------4444-5555----|| \/ |_|
D||----6666-7777-4444-6666----|| /\   |
A||----4444-7777-2222-3333----||
D||---------7777--------------||

e||----------||
B||----------||
G||----6~----||
D||----6~----||
A||----4~----||
D||----------||

////////////////////////////////////////////////////////////////

14. A Gilded Masquerade

As the water drips from the sky, I start to wonder
If I'm still alive then I have to find an answer.
Could it be that it was a dream and I'm still beside her?
e||----------------------------------------------||
B||----------------------------------------------||    _
G||----66666666--44444444--44444444--22222222----|| \/ _|
D||----66666666--44444444--22222222--22222222----|| /\ _|
A||----44444444--22222222--22222222--00000000----||
D||------------------------22222222--------------||

Right before my eyes rain just drips and dries.
The water stops.
e||----------------------------------------------||
B||----------------------------------------------||
G||----66666666--44444444--44444444--2~---2~-----||
D||----66666666--44444444--22222222--2~---2~-----||
A||----44444444--22222222--22222222--0~---0~-----||
D||------------------------22222222--------------||

Wickedness will rain and drown us in her
Sorrow and her thirst!
If I hope to survive I must think faster,
I'm losing ground
e||--------------------------------------------||
B||--------------------------------------------||     _
G||----66666666--66466464----------------------|| \/  _| 
D||----66666666--66466464--77xx77xx77xx77x7----|| /\ |_
A||----44444444--44244242--77xx77xx77xx77x7----||
D||------------------------77xx77xx77xx77x7----||
        ......

Should I pull back the veil?
e||---------------||
B||---------------||
G||---------------||
D||----7~---7~----||
A||----7~---7~----||
D||----7~---7~----||

You have the best of me, now taste the worst!
All the glimmers is not gold
e||----------------------------||
B||----------------------------||
G||----6666--4444--22222222----||
D||----6666--4444--22222222----||
A||----4444--2222--00000000----||
D||----------------------------||

I may be wrong but your brilliance is my darkness
You had me convinced that together we could fly
e||----------------------------------------------||
B||----------------------------------------------||
G||--------------44444444--66664444--22222222----||
D||----22222222--44444444--66664444--22222222----||
A||----22222222--22222222--44442222--00000000----||
D||----22222222----------------------------------||

Until I started scratching at the surface
And I saw beyond your masquerade!
Your body is an illness..
e||----------------------------------------------||
B||----------------------------------------------||
G||--------------44444444--22222222--44444444----||
D||----22222222--44444444--22222222--44444444----||
A||----22222222--22222222--00000000--22222222----||
D||----22222222----------------------------------||

Temples crashing down all around me,
Panic chokes the streets!
The golden city falls
And with it our lives go up in flames
e||--------------------------------------------||
B||--------------------------------------------||     _
G||----66666666--66466464----------------------|| \/  _| 
D||----66666666--66466464--77xx77xx77xx77x7----|| /\ |_
A||----44444444--44244242--77xx77xx77xx77x7----||
D||------------------------77xx77xx77xx77x7----||
        ......

Should I pull back the veil?
e||---------------||
B||---------------||
G||---------------||
D||----7~---7~----||
A||----7~---7~----||
D||----7~---7~----||

You have the best of me, now taste the worst!
All that glimmers is not gold
e||----------------------------||
B||----------------------------||
G||----6666--4444--22222222----||
D||----6666--4444--22222222----||
A||----4444--2222--00000000----||
D||----------------------------||

I may be wrong but your brilliance is my darkness
You have me convinced that together we could fly
e||----------------------------------------------||
B||----------------------------------------------||
G||--------------44444444--66664444--22222222----||
D||----22222222--44444444--66664444--22222222----||
A||----22222222--22222222--44442222--00000000----||
D||----22222222----------------------------------||

Until I started scratching at the surface
And I saw beyond your masquerade!
Your body is an illness..
e||----------------------------------------------||
B||----------------------------------------------||
G||--------------44444444--22222222--44444444----||
D||----22222222--44444444--22222222--44444444----||
A||----22222222--22222222--00000000--22222222----||
D||----22222222----------------------------------||

(All shall be made clear)
e||-----------------------------------||
B||-----------------------------------||
G||----66-666--6-666--6-666--6-666----||
D||----66-666--6-666--6-666--6-666----||
A||----44-444--4-444--4-444--4-444----||
D||-----------------------------------||

(We've been watching you wander)
My blood runs cold
(There's no need to run farther)
I fear I know the truth
e||----------------------------------------------||
B||----------------------------------------------||
G||----66-66666--44-44444------------22-22222----||
D||----66-66666--44-44444--22-22222--22-22222----||
A||----44-44444--22-22222--22-22222--00-00000----||
D||------------------------22-22222--------------||

e||----------------------------------------------||
B||----------------------------------------------||
G||----66-66666--44-44444------------------------||
D||----66-66666--44-44444--22-22222--44-44444----||
A||----44-44444--22-22222--22-22222--44-44444----||
D||------------------------22-22222--44-44444----||

(Come into our arms, brother)
I tear back to cowl and stare into my own eyes!
e||---------------------------------------------||
B||---------------------------------------------||
G||---6464646~--44-44444------------------------||
D||---6464646~--44-44444--2020202~--44-44444----||
A||---4242424~--22-22222--2020202~--44-44444----||
D||-----------------------2020202~--44-44444----||

Who are you? Who are you? Who are you!?
Yeah!
e||----------------------------------------||
B||----------------------------------------||
G||----66666666--44444444------------------||
D||----66666666--44444444--22222222--4~----||
A||----44444444--22222222--22222222--4~----||
D||------------------------22222222--4~----||

Hey (16x)
e||----------------------------------------------||
B||----------------------------------------------||
G||----66666666------------66669999--------------||
D||----66666666--66666666--66669999--66666666----||
A||----44444444--66666666--44447777--66666666----||
D||--------------66666666------------66666666----||

e||--------------------------||
B||--------------------------||
G||----22222222--44444444----||
D||----22222222--44444444----||
A||----00000000--22222222----||
D||--------------------------||

e||----------------------------------------------||
B||----------------------------------------------||
G||----66666666------------66669999--------------||
D||----66666666--66666666--66669999--66666666----||
A||----44444444--66666666--44447777--66666666----||
D||--------------66666666------------66666666----||

e||----------------------------------------------||
B||----------------------------------------------||     _
G||----22222222--44444444------------66664444----|| \/  _|
D||----22222222--44444444--66666666--66664444----|| /\ |_
A||----00000000--22222222--66666666--44442222----||
D||------------------------66666666--------------||

e||-----------------------||
B||-----------------------||     _
G||----6---6---6---444----|| \/  _|
D||----6---6---6---444----|| /\ |_
A||----4---4---4---222----||
D||-----------------------||

I pull back the veil
e||---------------||
B||---------------||
G||---------------||
D||----7~---7~----||
A||----7~---7~----||
D||----7~---7~----||

You have the best of me, now taste the worst!
All that glimmers is not gold
e||----------------------------||
B||----------------------------||
G||----6666--4444--22222222----||
D||----6666--4444--22222222----||
A||----4444--2222--00000000----||
D||----------------------------||

I may be wrong but your brilliance is my darkness
You have me convinced that together we could fly
e||----------------------------------------------||
B||----------------------------------------------||
G||--------------44444444--66664444--22222222----||
D||----22222222--44444444--66664444--22222222----||
A||----22222222--22222222--44442222--00000000----||
D||----22222222----------------------------------||

Until I started scratching at the surface
And I saw beyond your masquerade!
You body is an illness 
e||----------------------------------------------||
B||----------------------------------------------||
G||--------------44444444--22222222--44444444----||
D||----22222222--44444444--22222222--44444444----||
A||----22222222--22222222--00000000--22222222----||
D||----22222222----------------------------------||

And I'm sickened by the though of you!
I may never be the same again
(I may never be the same again) 
e||---------------------------------------------||
B||---------------------------------------------||
G||----22222222--44444444--2~---2~---2~---2~----||
D||----22222222--44444444--2~---2~---2~---2~----||
A||----00000000--22222222--0~---0~---0~---0~----||
D||---------------------------------------------||

e||---------||
B||---------||
G||---2~----||
D||---2~----||
A||---0~----||
D||---------||

////////////////////////////////////////////////////////////////

15. The Best Laid Plans of Mice and Marionettes

Intro:
e||------------------------------------------||
B||-------4h52-------------4h52--------------||
G||------------------------------------------||
D||-----6------6h76-4h64--6-----6h76-4h6-----||
A||----4-----------------4--------------7----||
D||------------------------------------------||

e||-------------------------------||
B||-------5~----------------5~----||
G||-------------------------------||
D||-----2------6h76-4h64--2-------||
A||----0-----------------0--------||
D||-------------------------------||

e||--------------------------------------------||
B||--------------------------------------------||
G||----666-6-6~--666-6-6~----------------------||
D||----666-6-6~--666-6-6~--777-7-7~--7-7-7~----||
A||----444-4-4~--444-4-4~--777-7-7~--7-7-7-----||
D||------------------------777-7-7~--7-7-7~----||

There's no escape from this awful place!
e||--------------------------------------------||
B||--------------------------------------------||
G||----666-6-6~--666-6-6~----------------------||
D||----666-6-6~--666-6-6~--7-7-7~--777-7-7~----||
A||----444-4-4~--444-4-4~--7-7-7~--777-7-7-----||
D||------------------------7-7-7~--777-7-7~----||

e||-------------------||
B||-------------------||
G||----66-55-44-33----||
D||----66-55-44-33----||
A||----44-33-22-11----||
D||-------------------||

Hey, stranger what's your name?
Have we met before?
e||-----------------------------||
B||-----------------------------||
G||-----------------------------|| (soft part)
D||----44-44444-44444-44x424----||
A||----44-44444-44444-44x424----||
D||----44-44444-44444-44x424----||

Take a look around, the scenes are all the same.
e||---------------------------||
B||---------------------------||
G||----6666-4444--------------||
D||----6666-4444-6666-7777----||
A||----4444-2222-6666-7777----||
D||--------------6666-7777----||

I can see the veil right behind me.
e||-----------------------------||
B||-----------------------------||
G||-----------------------------||
D||----44-44444-44444-44x424----||
A||----44-44444-44444-44x424----||
D||----44-44444-44444-44x424----||

I'll close my eyes and this will go away.
Have I ever said this before!?
If I just keep moving will I be okay or panic in the mayhem!?
e||---------------------------||
B||---------------------------||     _
G||----6666-4444--------------|| \/  _|
D||----6666-4444-6666-7777----|| /\ |_
A||----4444-2222-6666-7777----||
D||--------------6666-7777----||

I can't take it, I'm battered and broken, abandoned forever!
e||----------------------------||
B||----------------------------||
G||--------------4~---55555----||
D||----4~---7~---4~---55555----||
A||----4~---7~---2~---33333----||
D||----4~---7~-----------------||

It's round and round and round we go.
Somebody please let me know
e||-------------------------------------------||
B||-------------------------------------------||
G||-------------------------------77777777----||
D||----44444444-22222222-77777777-77777777----||
A||----44444444-22222222-77777777-55555555----||
D||----44444444-22222222-77777777-------------||

just what it takes to being to start all over again.
e||-------------------------------------------||
B||-------------------------------------------||
G||-------------------------------44445555----||
D||----42444444-22222222-77777777-44445555----||
A||----42444444-22222222-77777777-22223333----||
D||----42444444-22222222-77777777-------------||

The truth has finally shown it's face.
How long have I been in this place?
e||----------------------------------------||
B||----------------------------------------||     _
G||----------------------------------------|| \/  _|
D||----77-777-799-999-944-444-444-444-4----|| /\ |_
A||----77-777-799-999-944-444-444-444-4----||
D||----77-777-799-999-944-444-444-444-4----||
       .. ... ... ... ... ... ... ... .

I never had a choice, you blinded me and stole my voice!
I will see you soon.
e||---------------------------------------------------------||
B||---------------------------------------------------------||
G||--------------------666-666------------------66554433----||
D||----777-777-999-999-666-666-44442222-777-777-66554433----||
A||----777-777-999-999-444-444-44442222-777-777-44332211----||
D||----777-777-999-999---------44442222-777-777-------------||
       ..  ..  ..  ..  ..  ..           ..  ..

Hey, stranger what's your name?
Have we met before?
e||-----------------------------||
B||-----------------------------||
G||-----------------------------|| (soft part)
D||----44-44444-44444-44x424----||
A||----44-44444-44444-44x424----||
D||----44-44444-44444-44x424----||


Do I ever dare to question fate's design
e||---------------------------||
B||---------------------------||
G||----6666-4444--------------||
D||----6666-4444-6666-7777----||
A||----4444-2222-6666-7777----||
D||--------------6666-7777----||

or submit to such a bleak destiny?
e||-----------------------------||
B||-----------------------------||
G||-----------------------------||
D||----44-44444-44444-44x424----||
A||----44-44444-44444-44x424----||
D||----44-44444-44444-44x424----||


There has to be another way than this, It's a hopeless fight anyway!
I will not give up and wash away the sin, I'm thirsting for the carnage!
e||---------------------------||
B||---------------------------||     _
G||----6666-4444--------------|| \/  _|
D||----6666-4444-6666-7777----|| /\ |_
A||----4444-2222-6666-7777----||
D||--------------6666-7777----||

I can't take it, I'm battered and broken, abandoned forever!
e||----------------------------||
B||----------------------------||
G||--------------4~---55555----||
D||----4~---7~---4~---55555----||
A||----4~---7~---2~---33333----||
D||----4~---7~-----------------||

It's round and round and round we go.
Somebody please let me know
e||-------------------------------------------||
B||-------------------------------------------||
G||-------------------------------77777777----||
D||----44444444-22222222-77777777-77777777----||
A||----44444444-22222222-77777777-55555555----||
D||----44444444-22222222-77777777-------------||

just what it takes to begin to start all over again.
e||-------------------------------------------||
B||-------------------------------------------||
G||-------------------------------44445555----||
D||----42444444-22222222-77777777-44445555----||
A||----42444444-22222222-77777777-22223333----||
D||----42444444-22222222-77777777-------------||

The truth has finally shown it's face.
How long have I been in this place?
e||----------------------------------------||
B||----------------------------------------||     _
G||----------------------------------------|| \/  _|
D||----77-777-799-999-944-444-444-444-4----|| /\ |_
A||----77-777-799-999-944-444-444-444-4----||
D||----77-777-799-999-944-444-444-444-4----||
       .. ... ... ... ... ... ... ... .

I never had a choice, you blinded me and stole my voice!
I will no longer take flight from
e||----------------------------------------------------------------||
B||----------------------------------------------------------------||
G||--------------------666-666------------------66554433-----------||
D||----777-777-999-999-666-666-44442222-777-777-66554433-887766----||
A||----777-777-999-999-444-444-44442222-777-777-44332211-887766----||
D||----777-777-999-999---------44442222-777-777----------887766----||
       ..  ..  ..  ..  ..  ..           ..  ..

you...
Now that you've got me, what's next?!
Let me help.
Now I destroy you, demon!
e||---------------------------------------------||
B||---------------------------------------------||
G||---------------------------------------------||
D||----44-444-444-444----44-444-444-44665544----||
A||----44-444-444-444202-44-444-444-44443322----||
D||----44-444-444-444----44-444-444-44----------||

Sinew is ripped to shreds!
Stripped form your body, crimson!
Fury of righteousness will now consume you in death!
e||---------------------------------------------||
B||---------------------------------------------||
G||---------------------------------------------||
D||----44-444-444-444----44-444-444-44-44444----||
A||----44-444-444-444202-44-444-444-44-44444----||
D||----44-444-444-444----44-444-444-44-44444----||

It's the sweet, sweet song of your heartbeat.
All I feel is a memory.
Of the night I laid in bed with you.
(NOTE: (I don't know the lead part. If you don't know it too,
then just strum the following chords softly.)

It's the easy sound of your breathing.
Telling me what I should've seen.
Where was I when you fell fast asleep?
e||-------------------------------------------||
B||-------------------------------------------||
G||----66666666-4444--------------------------||
D||----66666666-44442222-77777777-77777777----||
A||----44444444-22222222-77777777-77777777----||
D||-----------------2222-77777777-77777777----||
       ........ ........ ........ ........
e||-------------------------------------||    
B||-------------------------------------||
G||-------------------------------------||
D||----44444444-66666666-77777777-77----|| 
A||----44444444-66666666-77777777-77----||
D||----44444444-66666666-77777777-77----||
       ........ ........ ......

Solo:
e||-------------------------------------------------------------------||
B||-------------------------------------------------------------------||
G||----66666666-4422--------------------------------------------------||
D||----66666666-44222222-77-77-77-77-44444444-66666666-77-77-77-77----||
A||----44444444-22002222-77-77-77-77-44444444-66666666-77-77-77-77----||
D||-----------------2222-77-77-77-77-44444444-66666666-77-77-77-77----||

e||-------------------------------------------------------||
B||-------------------------------------------------------||
G||----66666666-4422--------------------------------------||
D||----66666666-44222222-77-77-77-77-44444444-66666666----||
A||----44444444-22002222-77-77-77-77-44444444-66666666----||
D||-----------------2222-77-77-77-77-44444444-66666666----||

I can't live without you by my side.
e||-----------------------------------||
B||-----------------------------------||
G||-----------------------------------||
D||----7777-9999-4444-6666-7777777----||
A||----7777-9999-4444-6666-7777777----||
D||----7777-9999-4444-6666-7777777----||

It's round and round and round we go.
Somebody please let me know just what it takes to begin, to start all over again!
It's round and round and round we go.
Someone please let me know just what it takes to begin, to start all over again! 
e||-------------------------------------------||
B||-------------------------------------------||
G||-------------------------------77777777----||
D||----44444444-22222222-77777777-77777777----||--
A||----44444444-22222222-77777777-55555555----||  |     _
D||----44444444-22222222-77777777-------------||  | \/  _|
                                                  | /\ |_
e||-------------------------------------------||  |
B||-------------------------------------------||  |
G||-------------------------------44445555----||--
D||----42444444-22222222-77777777-44445555----||
A||----42444444-22222222-77777777-22223333----||
D||----42444444-22222222-77777777-------------||

////////////////////////////////////////////////////////////////

16. And Now for the Final Illusion

Intro:
(NOTE: This actually seems to be the ending of The Best Laid Plans Of Mice And Marionettes)
Wake up... Wake up... Wake up...
e||----------------------||
B||----------------------||
G||----66-55-44-33-2~----||
D||----66-55-44-33-2~----||
A||----44-33-22-11-0~----||
D||----------------------||

[SPOKEN]
My eyes open wide as I wake, panting, some say that dreams have deeper meaning.
That they are cries from our subconscious.
I feel strangely compelled to recount this one to my love,
My Annabel, shaking her gently, I wonder why her flesh has the chill of virgin snow.
My thoughts are disrupted as reality hits me like a bold of lightning and I scream.
e||----------------||
B||----------------||     _ 
G||----------------|| \/  _|
D||----3~----7~----|| /\  _|
A||----3~----7~----||
D||----3~----7~----||

e||----------||
B||----------||
G||----------||
D||----3~----||
A||----3~----||
D||----3~----||

We are the crucified, we are the virtuous, we are the damned.
We are the crucified, this is our nightmare, let's pray we never fall asleep.
We are the crucified, we are the virtuous, we are the damned.
We are the crucified, this is our nightmare, let's pray we never fall asleep.
e||-------------------------------------------||
B||-------------------------------------------||
G||-------------------------------------------||
D||----77777777-77777777-33333333-55555555----||--
A||----77777777-77777777-33333333-55555555----||  |
D||----77777777-77777777-33333333-55555555----||  |     _
       ........ ........ ........ ........        | \/  _|
e||-------------------------------------------||  | /\ |_
B||-------------------------------------------||  |
G||-------------------------------------------||--
D||----77777777-77777777-22222222-33333333----||
A||----77777777-77777777-22222222-33333333----||
D||----77777777-77777777-22222222-33333333----||
       ........ ........ ........ ........

We are the crucified, we are the virtuous, we are the damned.
We are the crucified, this is our nightmare, let's pray we never fall asleep.
We are the crucified, we are the virtuous, we are the damned.
We are the crucified, this is our nightmare, let's pray we never fall asleep.
e||-------------------------------------------||
B||-------------------------------------------||
G||-------------------------------------------||
D||----77777777-77777777-33333333-55555555----||--
A||----77777777-77777777-33333333-55555555----||  |
D||----77777777-77777777-33333333-55555555----||  |
                                                  | \/ |_|
e||-------------------------------------------||  | /\   |
B||-------------------------------------------||  |
G||-------------------------------------------||--
D||----77777777-77777777-22222222-33333333----||
A||----77777777-77777777-22222222-33333333----||
D||----77777777-77777777-22222222-33333333----||

We are the crucified, we are the virtuous, we are the damned.
We are the crucified.
e||-------------------------------------------------------||
B||-------------------------------------------------------||
G||-------------------------------------------------------||
D||----7~--------3~----5~-------7~--------2~----3~--------||
A||----7~--------3~----5~-------7~--------2~----3~--------||
D||----7~--------3~----5~-------7~--------2~----3~--------||

We are the crucified, we are the virtuous, we are the damned.
We are the crucified.
e||-------------------------------------------------------||
B||-------------------------------------------------------||
G||-------------------------------------------------------||
D||----777~------3~----5~-------777~------2~----3~--------||
A||----777~------3~----5~-------777~------2~----3~--------||
D||----777~------3~----5~-------777~------2~----3~--------||

e||----------||
B||----------||
G||----------||
D||----7~----||
A||----7~----||
D||----7~----||

Imprisoned beneath the world where the soulless dwell.
Lies a place that the damned call home.
A place where the virtuous hide in fear.
A place we see only in our nightmares.
A place where the sun is silent. 
Imprisoned beneath the world where the soulless dwell.
Lies a place that the damned call home.
A place where the virtuous hide in fear.
e||------------------------------------------||
B||----------5---------5--------5~-----5~----||     _
G||---------4-6~------4-6~-----6------6------|| \/  _|
D||------6---------6-------------------------|| /\ |_
A||----4---------4-----------0------0--------||
D||------------------------------------------||

A place we see only in our nightmares.
A place where the sun is silent. 
e||--------------------9~----||
B||----------------5~--------||
G||------------6~------------||
D||--------6~----------------||
A||----4~--------------------||
D||--------------------------||

////////////////////////////////////////////////////////////////

END
Добавлено: 14.09.2013
Другие материалы по этой песне:
  • Аккорды и текст

Страница создана 14.09.2013
http://primanota.ru/alesana/a-place-where-the-sun-is-silent-chords.htm
Привет, Гость.
Предлагаем пройти революционный курс по гитаре.
Подарок от PrimaNota.Ru, забирай!