PrimaNota.ru - самый крупный в мире бесплатный архив песенных текстов, аккордов, табулатур и нот


Alela Diane - To Be Still - таба, видео

Регистрация Запомнить меня
Войти через:  Facebook Google Twitter Vk Yandex Mail.ru

Alela Diane - To Be Still - таба, видео

Печатать
Просмотров: 175
Уроки эстрадного вокала в Санкт-Петербурге
Авторы музыки: Alela Diane
Авторы текста: Alela Diane
-----------------------------------------------------------------------------
                             To Be Still - Alela Diane
-----------------------------------------------------------------------------
Tabbed by: Ryan Little
Email: rdlittle25@yahoo.com

Tuning: E Standard



Intro / Verse Picking Sequence:

  D                           C
|---------------------------||-------------------------||
|---------------------------||-------------------------||
|------7-----7-----7-----7--||----5-----5-----5-----5--||
|----7-----7-----7-----7----||--5-----5-----5-----5----||
|--5-----------5------------||3-----------3------------||
|-------5-----------5-------||-----3-----------3-------||


D                             C
Have you been wearing holes in your boots out there
D                             C
Have you been kicking bones in the desert sand
D                             C
There's a wolf inside the cave and another in the clouds
D                             C
I've seen them chewing on, on the shadows in your eyes

D               Am7             C               G
And it's here at home I wait for your wanders to be still
D               Am7             C               G
Oh it's here at home I wait for your wanders to be still
D               Am7             C               G
And I wont drag my feet in whatever dirt you track in
D               Am7             C               G
No I wont drag my feet in whatever dirt you track in


D                             C
Will you look at me when your face shows the lines of years
D                             C
While you've been away I have needed your strong hands
D                             C
California hills will surely welcome us back home
D                             C
But the way toward the crop of gold is not far from the snow
D                             C
Oh, the way toward the crop of gold is not far from the snow


D               Am7             C               G
And it's here at home I wait for your wanders to be still
D               Am7             C               G
Oh it's here at home I wait for your wanders to be still
D               Am7             C               G
And I wont drag my feet in whatever dirt you track in
D               Am7             C               G
No I wont drag my feet in whatever dirt you track in
D               Am7             C               G
And it's here at home I wait for your wanders to be still
D               Am7             C               G
And I wont drag my feet in whatever dirt you track in

Outro

  D                           C
|---------------------------||-------------------------||
|---------------------------||-------------------------||
|------7-----7-----7-----7--||----5-----5-----5-----5--||
|----7-----7-----7-----7----||--5-----5-----5-----5----||
|--5-----------5------------||3-----------3------------||
|-------5-----------5-------||-----3-----------3-------||



Second Guitar Part

 D                              C
|---------5-----|--------5-----|--------5-----|------5---|
|--5h7------7---|-7p5------7---|-7p5------5---|-3h5----5-|
|-------7-----7-|------7-----7-|------5-----5-|----------|
|---------------|--------------|--------------|----------|
|---------------|--------------|--------------|----------|
|---------------|--------------|--------------|----------|

Improvise with hammer-ons and pull-offs back and forth between major and sus 2 chords. 

Добавлено: 31.05.2012
Другие материалы по этой песне:
  • Аккорды и текст

Страница создана 31.05.2012
http://primanota.ru/alela-diane/to-be-still-chords.htm
Привет, Гость.
Предлагаем пройти революционный курс по гитаре.
Подарок от PrimaNota.Ru, забирай!