PrimaNota.ru - самый крупный в мире бесплатный архив песенных текстов, аккордов, табулатур и нот


Alela Diane - Dry Grass And Shadows - таба, видео

Регистрация Запомнить меня
Войти через:  Facebook Google Twitter Vk Yandex Mail.ru

Alela Diane - Dry Grass And Shadows - таба, видео

Печатать
Просмотров: 144
Уроки эстрадного вокала в Санкт-Петербурге
Авторы музыки: Alela Diane
Авторы текста: Alela Diane
        Dry Grass and Shadows           


                             Alela Diane

Piano

     S S S S S S S S S  S  E   Q     
E||--------------------15-17--19----|
B||---------------------------------|
G||---------------------------------|
D||---------------------------------|
A||---------------------------------|
E||---------------------------------|
B||---------------------------------|


Guitar

E||-------|
B||-------|
G||-------|
D||-------|
A||-------|
E||-------|


Piano

  W                 
--27----------------|
--------------------|
--------------------|
--------------------|
--------------------|
--------------------|
--------------------|


Guitar

  E   E   S S S S E  E  S S S S  
--------------------------------|
-----(3)--------3----3--------3-|
----------L-0-----------L-0-----|
------0-------0------0------0---|
--------------------------------|
--3-------3-------3-----3-------|


Piano

   W                 
--25----------------|
--------------------|
--------------------|
--------------------|
--------------------|
--------------------|
--------------------|


Guitar

  E  E  S S S S E  E  S S S S  
-----1--------1----1----------|
----------------------------0-|
--------L-0-----------L-0-----|
-----0------0------0------0---|
------------------------------|
--3-----3-------3-----3-------|


Piano

   W                 
--24----------------|
--------------------|
--------------------|
--------------------|
--------------------|
--------------------|
--------------------|


Guitar

  S S S S S S S S S S S S S S S S  
----------------------------------|
----1---0---1---0---1---0---1---0-|
----------------------------------|
------0-------0-------0-------0---|
----------------------------------|
--3-------3-------3-------3-------|


Piano

   W                 
--19----------------|
--------------------|
--------------------|
--------------------|
--------------------|
--------------------|
--------------------|


Guitar

  E  E  S S S S E  E  S S S S  
------------------------------|
-----0--------0----0--------0-|
--------L-4-----------L-4-----|
-----0------0------0------0---|
------------------------------|
--3-----3-------3-----3-------|


Piano

   H.            Q     
--27------------27----|
----------------------|
----------------------|
----------------------|
----------------------|
----------------------|
----------------------|


Guitar

  E   E   S S S S E  E  S S S S  
--------------------------------|
-----(3)--------3----3--------3-|
----------L-0-----------L-0-----|
------0-------0------0------0---|
--------------------------------|
--3-------3-------3-----3-------|


Piano

   H        E  E  E   E   
--25-----------------25--|
-------------------------|
-------------------------|
-------------------------|
-------------------------|
-------------------------|
-------------------------|


Guitar

  E  E  S S S S E  E  S S S S  
-----1--------1----1----------|
----------------------------0-|
--------L-0-----------L-0-----|
-----0------0------0------0---|
------------------------------|
--3-----3-------3-----3-------|


Piano

   H        S S S S S  S  S  
--24------------------24-19-|
----------------------------|
----------------------------|
----------------------------|
----------------------------|
----------------------------|
----------------------------|


Guitar

  S S S S S S S S S S S S S S S S  
----------------------------------|
----1---0---1---0---1---0---1---0-|
----------------------------------|
------0-------0-------0-------0---|
----------------------------------|
--3-------3-------3-------3-------|


Piano

   H         S  S S S S S S   S   
--19--------17-15-----------(15)-|
---------------------------------|
---------------------------------|
---------------------------------|
---------------------------------|
---------------------------------|
---------------------------------|


Guitar

  E  E  S S S S E  E  S S S S       
------------------------------|----|
-----0--------0----0--------0-|----|
--------L-4-----------L-4-----|----|
-----0------0------0------0---|----|
------------------------------|----|
--3-----3-------3-----3-------|----|


Duration Legend
---------------
W - whole
H - half
Q - quarter
E - 8th
S - 16th
T - 32nd
X - 64th
. - note dotted
|-n-|  - n-tuplets


Tablature Legend
----------------
L - tied note
x - dead note
g - grace note
(n) - ghost note
> - accentuded note
NH - natural harmonic
AH - artificial harmonic
TH - tapped harmonic
SH - semi harmonic
PH - pitch harmonic
h - hammer on
p - pull off
b - bend
br - bendRelease
pb - preBend
pbr - preBendRelease
brb - bendReleaseBend
\n/ - tremolo bar dip
\n - tremolo bar dive
-/n - tremolo bar Release up
/n\ - tremolo bar inverted dip
/n - tremolo bar return
-\n - tremolo bar Release down
S - shift slide
s - legato slide
/ -  slide into from below or out of upwards
\ -  slide into from above or out of downwards
~ - vibrato
W - wide vibrato
tr - trill
TP - tremolo picking
T - tapping
S - slap
P - pop
< - fade in
^ - brush up
v - brush down
Добавлено: 05.03.2012
Другие материалы по этой песне:

Страница создана 24.02.2012
http://primanota.ru/alela-diane/dry-grass-and-shadows-chords.htm
Привет, Гость.
Предлагаем пройти революционный курс по гитаре.
Подарок от PrimaNota.Ru, забирай!