PrimaNota.ru - самый крупный в мире бесплатный архив песенных текстов, аккордов, табулатур и нот


Aleksandra Radovic - Kao So U Moru - таба, видео

Регистрация Запомнить меня
Войти через:  Facebook Google Twitter Vk Yandex Mail.ru

Aleksandra Radovic - Kao So U Moru - таба, видео

Печатать
Просмотров: 206
Hallo, my name is Vladimir, Im from Serbia.

Wikipedia:
"Aleksandra Radović (Serbian Cyrillic: Александра Радовић) is a Serbian singer and songwriter,
one of the most popular pop and R&B singers in Serbia."

You can see this music video on youtube:

http://www.youtube.com/watch?v=YHRHzkHlxmE




              Aleksandra Radovic - Kao so u moru
               (album: Aleksandra Radovic, 2003)



Intro:

     Am             F6  E      Am           F6    E
e|---5\---0---------------------5\--0--------0-1--------|
B|---5\---1-3---1---3---1-0-----5\--1-3--1--3-----1-0---|
G|----------2---2---2---1-------------2--2--2-----1-----|
D|------------------------------------------------------|
A|---0----0--------------------0----0-------------------|
E|------------------1---0-------------------1-----0-----|


     Am             F6  E    F6     E7(11) E7
e|----5\--0------------------------------------------|
B|----5\--1-3---1---3---1-0-----3------3----3---0----|
G|----------2---2---2---1----2--2-2--2----1----------|
D|---------------------------3-------2----2----2-----|
A|---0----0------------------------------------------|
E|------------------1---0----1--1----0----0----------|



Am                G
Cetri hladna zida, jedna odaja
F                  E     A6       B6        Am
hotel izgubljenih dusa, nocas je moja stanica

(goes like this:)


     Am          G           F           E    A6 B6
e|----------------------------------------------------|
B|----1-0--1-0----0--0-0-0-----0-1--------------------|
G|----2-2--2-2----0--0-0-0---2---2--0-2---1---2--4----|
D|---------------------------3------------2---4--6----|
A|---0-----0---0------------------------------0--2----|
E|---------------3---3---3---1---1--1----0------------|



Ja sam svome brodu, i talas a i vir
daleko od ociju, srce nece naci mir

(same as the one before)



(the next bridge strophe finger-picking is nothing special, improvise...)



F                   C
Ja idem svetla neka ostanu
E                      Am      G
Kroz prozor moje duse, sijace da me nadjes
F                  C
Kada od mene svi odustanu
E                      E7
Ti mozes da se vratis tu...



              Am     A7
Pamet kad se pomeri...


     E7            Am            A7
e|--------0---------0-------0----0-----|
B|-------0----------1---1-3-1----1--1--|
G|------1---------------2-2---2----0---|
D|-----0-------------------------------|
A|----2------7\----0---0----0----0-----|
E|---0---------------------------------|



               Dm
Nedostaje mi tvoje bliskosti...
              C  Bhalf-dim                  E      Am       E(#9) E(b9)
Dodje mi da zgazim sve, i da podjem bilo gde, sa bilo kim




     Dm                 C Bhalf-dim  E                  E(#9) E(b9)
e|----1--1-1--1h3p1----------------------------0------0--3----1--0---|
B|----3--3-3---------3--1--3---3-------0---0---1--1-3-1--0----0---0--|
G|-------------------2--0--2-2-2-2---1-1-1-1------2-2----------------|
D|---0---0---0-------0-------3-3-3---2---2---------------------------|
A|----------------------3--2-2---2------------0--0-------------------|
E|-----------------------------------0---0---------------0----0------|




E(#9) E(b9)  Am    A7
Pamet kad se pomeri...
         Dm
Nedostaje mi tvoje bliskosti
           C Bhalf-dim         E
Moje lice gubi boju, kao so u moru
           F6       E7               intro
Bez tvoje neznosti... bez tvoje neznosti.



     F6       E7         Am
e|------------------------5\...intro...
B|------3-------3----3----5\--------...
G|---2--2-----2----1----------------...
D|---3----3---2----2----------------...
A|-----------------------0----------...
E|---1--1-----0----0----------------...




Cetri hladna zida, jedna odaja
Moje nebo ostalo je medju tvojim prstima
Ja sam svome brodu i talas a i vir
Daleko od ociju srce nece naci mir


Ja idem svetla neka ostanu,
kroz prozor moje duse sijace da me nadjes
kada od mene svi odustanu
ti možeš da se vratis tu....


Pamet kad se pomeri,
nedostaje mi tvoje bliskosti,
dodje mi da zgazim sve
i da podjem bilo gde sa bilo kim.


Pamet kad se pomeri,
nedostaje mi tvoje bliskosti,
moje lice gubi boju, kao so u moru
bez tvoje neznost,
bez tvoje neznosti...



intro


finishing: Am(add9)



    Am(add9)
e|-------0---|
B|------1----|
G|-----4-----|
D|----2------|
A|---0-------|
E|-----------|




Used chords:

          EADGBe
Am--------x02210
F6--------133231
E---------022100 (022110)
E7(11)----022230
E7--------020100
G---------320003
A6--------x042xx
B6--------x264xx
C---------x32010
A7--------x02020
Bhalf-dim-x2323x
E(#9)-----022103
E(b9)-----022101
Am(add9)--x02410


Any comments post me at tordajav@yahoo.com

http://www.myspace.com/aleksandraradovic
Добавлено: 31.07.2012
Вам также может быть интересно:
Другие материалы по этой песне:
  • Аккорды и текст

Страница создана 31.07.2012
http://primanota.ru/aleksandra-radovic/kao-so-u-moru-chords.htm
Привет, Гость.
Предлагаем пройти революционный курс по гитаре.
Подарок от PrimaNota.Ru, забирай!