PrimaNota.ru - самый крупный в мире бесплатный архив песенных текстов, аккордов, табулатур и нот


Александр Новиков - Чулочек - аккорды и текст, видео

Регистрация Запомнить меня
Войти через:  Facebook Google Twitter Vk Yandex Mail.ru

Александр Новиков - Чулочек - аккорды и текст, видео

Печатать
Просмотров: 190
Чулочек
Александр Новиков
Dm E7 F Dm Am B7 E7 Am 
e|---/8-8-7-8-7-8---7-7-8-7-5-5---------7h5---------------------------------- 
B|------------------------------------------6-----------5-------------------- 
G|---/9-9-7-9-7-9---7-7-9-7-5-5---7-6-7-------7-5-4-5-7-----4h5h4-2-1-4-2---- 
D|--------------------------------------------------------------------------- 
A|--------------------------------------------------------------------------- 
E|--------------------------------------------------------------------------- 

E7 
e|--------------------- 
B|--------------------- 
G|---2-0h2h0----------- 
D|-----------3-2------- 
A|--------------------- 
E|--------------------- 

Am Dm 
Вышел я из метро и пошел по центральной дороге, 
E7 Am B7 E7 
И случайно в толпе уронил свой большой кошелек. 
Am Dm 
А как поднял глаза, увидал эти самые ноги 
G C E7 
И я понял, что нету на свете красивее ног. 

Dm 
Чулочек расписной - 
E7 F 
Такой не спрясть ни в жисть, 
A7 
А я насквозь блатной, 
Dm 
Вчера откинувшись. 
Am 
А я насквозь блатной, 
B7 E7 Am 
Вчера откинувшись. 

E7 
e|--------------------- 
B|--------------------- 
G|---2-0h2h0----------- 
D|-----------3-2------- 
A|--------------------- 
E|--------------------- 

Я сказал ей слова, и она улыбнулась мне мило, 
Как должна улыбаться однажды злодейка-судьба. 
И внутри у меня что-то больно и сладко заныло, 
И в мозгах приключилась какая-то, прямо, стрельба. 
Чулочек был на ней -  Глаз прямо не отвесть, 
А я блатных блатней, На пантомимах весь. 
А я блатных блатней, На пантомимах весь. 
И пошел я за ней и глядел, и глядел ей тайком в полу, 
И она повела меня так, как проводят слепых. 
И когда чем-то твердым в парадном мне дали по кумполу, 
Эти милые ножки изящно мне пнули под дых. 

Чулочек был цветной  
А фраеров - лишка, 
А я, насквозь блатной, 
Взял всех на перышко. 
А я, насквозь блатной, 
Am 
Взял всех на перышко. 

E7 F# Bm 
e|-----------------------2-2h3-2---- 
B|----------------------2----------- 
G|---2-0h2h0-----------3------------ 
D|-----------3-2---4--4------------- 
A|---------------------------------- 
E|---------------------------------- 

Bm Em6 
И сирены вокруг, и огни замигали, как в цирке. 
F# F#7 Bm C#7 F# 
А потом, как обычно, что даже рассказывать лень. 
Bm Em 
Но когда я шагал коридором знакомой Бутырки, 
A7 D F# 
Вспоминал почему-то лишь этот сиреневый день. 

Em6 
Чулочек тот смешной, 
F# G 
Что по ноге - плющом. 
B7 
А я такой блатной -  
Em6 
На десять лет еще. 
Bm 
А я такой блатной -  
C#7 F# Bm 
На десять лет еще. 

F# 
e|----------------- 
B|----------------- 
G|----------------- 
D|----------------- 
A|---9-7-5-4------- 
E|---7-5-3-2------- 

Bm Em6 F# F#7 Bm C#7 F# Bm Em A7 D F# 

Чулочек тот смешной, 
Что по ноге - плющом. 
А я такой блатной -  
На десять лет еще. 
А я такой блатной -  
C#7 F# Bm 
На десять лет еще. 
Em6 Bm 
А я такой блатной -  
C#7 F# Bm 
На десять лет еще. 
Em6 Bm 
А я такой блатной -  
C#7 F# Bm 
На десять лет еще
Добавлено: 28.02.2016
Другие материалы по этой песне:
  • Аккорды и текст

Страница создана 28.02.2016
http://primanota.ru/aleksandr-novikov/chulochek-chords.htm
Привет, Гость.
Предлагаем пройти революционный курс по гитаре.
Подарок от PrimaNota.Ru, забирай!