PrimaNota.ru - самый крупный в мире бесплатный архив песенных текстов, аккордов, табулатур и нот


Alejandro Silva - Free Fall - таба, видео

Регистрация Запомнить меня
Войти через:  Facebook Google Twitter Vk Yandex Mail.ru

Alejandro Silva - Free Fall - таба, видео

Печатать
Просмотров: 107
Free Fall 


Alejandro Silva

E||----------------------------|-------------------------------------19--|
B||----------------------------|----14-12-14---19-17-19---22-21-22-------|
G||-------------------14-13-14-|-----------------------------------------|
D||--4/---16-------------------|-----------------------------------------|
A||----------------------------|-----------------------------------------|
E||----------------------------|-----------------------------------------|



--21----------------|-----------------14-16-17-19--------17-16b--|
--------------------|--------------14----------------------------|
--------------------|-----------14-------------------------------|
--------------------|--------16----------------------------------|
--------------------|-----16-------------------------------------|
--------------------|--14----------------------------------------|



--16------14--------------|--------------------------------------------|
-------------14-17--------|-----------------------------12-14-15-14b---|
--------------------------|-----------13-11----11-13-14----------------|
--------------------------|-----------------14-------------------------|
--------------------------|--------------------------------------------|
--------------------------|--------------------------------------------|



------------------------|
------15b------15-14----|
------------------------|
------------------------|
------------------------|
------------------------|



------14------------------------------14-16-17--16b-----|
---------17b-----------------14-15-17----------------14-|
--------------16-14-13-14-16----------------------------|
--------------------------------------------------------|
--------------------------------------------------------|
--------------------------------------------------------|



--17b--17-16--------14-17-21--|
------------------------------|
------------------------------|
------------------------------|
------------------------------|
------------------------------|



------21b-21-19-22-------21-------19-------17------------|
-------------------21-19----19-17----17-15----15-14-17b--|
---------------------------------------------------------|
---------------------------------------------------------|
---------------------------------------------------------|
---------------------------------------------------------|



-------------------------------------------------|
--17-15-14---------------------------------------|
-----------16-14-13------------------------------|
--------------------16-14-12-14-16-14---12-11-12-|
-------------------------------------------------|
-------------------------------------------------|



--------------------------------------------------------------------------------
--------------------------------------------------------------------------------
--------------------------------------------------------------------------------
--14-12-11----12-14-16-14-12-11-12-14-12-11----11----------------------11-14-11-
-----------12-------------------------------14----12-14-12-11-12-11-12----------
--------------------------------------------------------------------------------



--------------------|------------------|----------------------|
--------------------|------------------|----------------------|
--------------------|------------------|--11----------9----7--|
--------------------|------------------|----------------------|
--------------------|------------------|----------------------|
--19----------------|------------------|----------------------|



-------------------|---------------------|-------------------------|
-------------------|---------------------|-------------------------|
-------------------|--9------------6b6---|-------------------------|
-----------------9-|---------------------|-------------------11-12-|
-------------------|---------------------|--------------9-12-------|
-------------------|---------------------|-------------------------|



----------------------|----------------------|--------------------------|
----------------------|----------------------|----------10-12r---10-----|
----------------------|----------------------|-----------------------9b-|
--12---------------11-|--9----------7-7----9-|--9-----------------------|
----------------------|----------------------|--------------------------|
----------------------|----------------------|--------------------------|



--------------------------|-------------------------------|
--------------------------|----10-10-------14-14---17-17--|
------7------11-7-9b--9-7-|--9----------------------------|
--------------------------|-------------------------------|
--------------------------|-------------------------------|
--------------------------|-------------------------------|



------17-12----------------------|----------------------------------------|
------------14----15-15b---15-14-|--12------------14-15-14-12----12-14-15-|
---------------------------------|----------------------------14----------|
---------------------------------|----------------------------------------|
---------------------------------|----------------------------------------|
---------------------------------|----------------------------------------|



-----------------------------14-10----------10-14-17-15-14----------------------
--14-12----12-14-15-14-12----------12----12----------------17-15-14-------------
--------14----------------14----------14----------------------------16-14-12----
-----------------------------------------------------------------------------16-
--------------------------------------------------------------------------------
--------------------------------------------------------------------------------



------------------------|--------------------------|
------------------------|--------------------------|
--------------16r---14--|----16--16b-----14--------|
--11--------------------|-------------------16-----|
------------------------|--------------------------|
------------------------|--------------------------|



--------14-16b----------16-16-|---------14---------------------|
-----14-----------------------|------14----17-----------14--15-|
--16b-------------------------|------------------16-16---------|
------------------------------|--------------------------------|
------------------------------|--------------------------------|
------------------------------|--------------------------------|



-------------------14-----------|------------------------------|
--14--------15-14---------17----|---10-------------------------|
----------------------14-----13-|------9--11-------------------|
--------------------------------|------------7--9--------------|
--------------------------------|-----------------7--9---------|
--------------------------------|----------------------5---12--|



--------------------------------------|
--------------------------------------|
------------------9-11-9-11-----16-13b|
----------9-11-12---------------------|
--9-11-12-----------------------------|
--------------------------------------|



----------------------------------------------|------------------------|
----------------------------------------------|------------------------|
--14----16-14-13-11-13-14-13-11-16----14---13-|----------14------16b---|
----------------------------------------------|--16--------------------|
----------------------------------------------|------------------------|
----------------------------------------------|------------------------|



---------------------------------|--------------------------|
---------------------------------|----------------17----17--|
--16------------14-16--18--16-14-|----------14--------------|
-------------16------------------|--16----------------------|
---------------------------------|--------------------------|
---------------------------------|--------------------------|



----------------------|------------------|
------14--------------|------------------|
----------16----------|----15------------|
----------------------|--------16-14--12-|
----------------------|------------------|
----------------------|------------------|



-------7-7-7----------7-9-10-7-9-7-5-7---5-------|
--7------7-----7-8-10------------------8---7-8-7-|
-------------------------------------------------|
-------------------------------------------------|
-------------------------------------------------|
-------------------------------------------------|



--------5---------------------------------------------------------------|
--5-7-8---7-8-7-5-7-----------------------------------------------------|
--------------------7-9-7-6-7-4-6---4-------------4---------------------|
----------------------------------7---5-7-5-4-5-7---7-5-4---------------|
----------------------------------------------------------7-5-4-5-7-5-4-|
------------------------------------------------------------------------|



---------------------5-9-5-7-9-7-5-9-12-10-9-----------------9-10-12-17-12------
-------------------5-------------------------10-----------10---------------14---
-----------------6------------------------------9-------9---------------------14
---------------7----------------------------------11-11-------------------------
--4--------4-7------------------------------------------------------------------
----5--5-5----------------------------------------------------------------------



--------------12-17-12-15-17-15-12-15-12-14-15-14-15-10-----------------------10
-----------14-------------------------------------------12-----------------12---
--------14-------------------------------------------------12-----------12------
-----14--------------------------------------------------------------12---------
--12-----------------------------------------------------------12-14------------
--------------------------------------------------------------------------------



--19------------------------------------|-----------17-22----21-19-------|
---------------17----19-17----------19--|--19----19-----------------19---|
------------16----16-------16----16-----|--------------------------------|
------------------------------19--------|--------------------------------|
----------------------------------------|--------------------------------|
----------------------------------------|--------------------------------|



--24-22--21---24----22-21---26--|---26-26-24-22-21-17----19--17-19-------|
--------------------------------|---------------------17-----------------|
--------------------------------|----------------------------------------|
--------------------------------|----------------------------------------|
--------------------------------|-------------------------------------16-|
--------------------------------|----------------------------------------|



----------------------------------------------|
--------14-17-15-14---------------------------|
-----14-------------16-14-18------18--16--14--|
--16------------------------------------------|
----------------------------------------------|
----------------------------------------------|



--------------------------------------|
--------------------------------------|
---16--14--13--14--16--13-------------|
-----------------------------14-------|
--------------------------------14----|
--------------------------------------|



---------------------16-19-16-14----17-14-------16-12----|
--19----17-----15-17-------------15-------15-14-------14-|
---------------------------------------------------------|
---------------------------------------------------------|
---------------------------------------------------------|
---------------------------------------------------------|



-----14-10-------12-9------10-7-9-10-12-10-9----9-------------------------|
--12-------12-10------10-9-------------------12---10-12-9-----------------|
----------------------------------------------------------11-9------11-13-|
---------------------------------------------------------------11---------|
--------------------------------------------------------------------------|
--------------------------------------------------------------------------|



--------------------------------------------------------------------------------
-----12-15-14-15-14-12----12----------------------------------------------------
--14-------------------14----14-13-14-13-11----13-11----------------------------
--------------------------------------------14-------14-12-11-12-14-12-11----11-
--------------------------------------------------------------------------14----
--------------------------------------------------------------------------------



------------------------------------------------------------------------|
------------------------------------------------------------------------|
------------------------------------------------------------------------|
------------------------------------------------------------------------|
--7-5---5-------5-7-4-5-4---4-----------------4-5-7-5-4-----------------|
------9---9-7-9-----------7---5-7-5-7-5-4-5-7-----------7-5-7-5-4-2-2-0-|



--------------------------------------------------------------------------------
--------------------------------------------------------------------------------
------------------------------------------------------2-2-----------------------
--------------2-4-6-4-2-----------------------2-2-4-6------------9-11-12--------
--------2-4-5-----------5-4-2-----------2-4-5-------------7-9-11---------7-9-11-
--2-4-5-----------------------5-4-2-4-5-----------------------------------------



---------------------7-9-10---------9-10-12----------10-12-14----------12-14-16-
--------------7-9-10--------9-10-12---------10-12-14----------12-14-15----------
--------6-7-9-------------------------------------------------------------------
--6-7-9-------------------------------------------------------------------------
--------------------------------------------------------------------------------
--------------------------------------------------------------------------------



---------5------9----|--7------4-----------|-----------------12-10--9-9----|
--7------------------|----------------5----|--7----------------------------|
---------------------|---------------------|-------------------------------|
---------------------|---------------------|-------------------------------|
---------------------|---------------------|-------------------------------|
---------------------|---------------------|-------------------------------|



-------------------------------9--10-|--9--------------14-12--10-9----|
-----------------------10--12--------|--------------------------------|
-----------11--11--12----------------|--------------------------------|
-------------------------------------|--------------------------------|
-------------------------------------|--------------------------------|
-------------------------------------|--------------------------------|



------------------------9---9---9--||
--------------10---12--------------||
----11---12------------------------||
-----------------------------------||
-----------------------------------||
-----------------------------------||
 
 
 
Добавлено: 19.07.2012
Вам также может быть интересно:
Другие материалы по этой песне:

Страница создана 20.04.2012
http://primanota.ru/alejandro-silva/free-fall-chords.htm
Привет, Гость.
Предлагаем пройти революционный курс по гитаре.
Подарок от PrimaNota.Ru, забирай!