PrimaNota.ru - самый крупный в мире бесплатный архив песенных текстов, аккордов, табулатур и нот


Alejandro Silva - El Sexto Mensajero - таба, видео

Регистрация Запомнить меня
Войти через:  Facebook Google Twitter Vk Yandex Mail.ru

Alejandro Silva - El Sexto Mensajero - таба, видео

Печатать
Просмотров: 144
Уроки эстрадного вокала в Санкт-Петербурге
El sexto Mensajero
Dios Eol
Alejandro Silva Power Cuarteto


/ = Slide
pm = Palm Muting


Key: Gm       Tempo: 157


ASPC la tocan con guitarras de 7 cuerdas, pero para simplificarlo pongo el tab en 
guitarra de 6 cuerdas.


Al principio me parece que usan usan armonía modal, Frigio de Gm (A#) . Eso sería 
enfocarse en la tercera mayor de #A, osea D.

Guitar 1
e|--------|-----------------------------------------------------|
B|--------|-----------------------------------------------------|
G|--------|--------------------------5-7------------------------|
D|--------|------------------------5----------------------------|
A|--12/0--|-5---5-----5---5---3/6-------------5---5-----5---5---|
D|--12/0--|---0---0-0---0---0-------------0-0---0---0-0---0---0-|
                    pm en la sexta cuerda durante toda la intro

--------------------|
--------------------|
--------------------|
--------------------|
--6---5-3-5-6-5-3---|
--------------------|
     |----pm--------|

e|-------------------------------------------------------------|
B|-------------------------------------------------------------|
G|-------------------------------5-7---------------------------|
D|-----------------------------5----------7/-7/-7/---1------5/-|
A|-----5---5-----5---5---3/6--------------5/-5/-5/---1------3/-|
D|-0-0---0---0-0---0---0--------------0pm------------1--0pm----|


e|----------------------------------------------------------|
B|----------------------------------------------------------|
G|-------------------------------5-7------------------------|
D|-----------------------------5----------------------------|
A|------5---5-----5---5---3/6-------------5---5-----5---5---|
D|--0-0---0---0-0---0---0-------------0-0---0---0-0---0---0-|

--------------------|
--------------------|
--------------------|
--------------------|
--6---5-3-5-6-5-3---|
--------------------|
     |----pm--------|

e|----------------------------------------------------|
B|----------------------------------------------------|
G|------------------------------5-7-------------------|
D|----------------------------5-----------------------|
A|-----5---5-----5---5---3/6-------------5---5-----6--|
D|-0-0---0---0-0---0---0-------------0-0---0---0-0----|

---------------------------|
---------------------------|
-7-8-7-5-------------------|
---------8-5-7-8-7-5-------|
---------------------8-6-5-|
-------------------------0-|


0:28 La segunda guitarra armoniza el riff principal :

e|---------------------------------------------------------|
B|---------------------------------------------------------|
G|---------------------------------------------------------|
D|------7---7-----7---7---3/5--5-7-8-----7---7-----7---7---|
A|---------------------------------------------------------|
D|--0-0---0---0-0---0---0------------0-0---0---0-0---0---0-|

-------------------|
-------------------|
-------------------|
--5---7-5-7-8-7-5--|
-------------------|
-------------------|
     |----pm-------|

0:39

Las dos guitarras:
e|-------------------------|
B|-------------------------|
G|-7-8-7-5-----------------|
D|---------8-5-7-8-7-5-----|
A|---------------------8-6-|
E|-------------------------|

Ahora una guitarra sola:
e|-------------------------------------------------|
B|-------------------------------------------------|
G|-8-10-8-7---------------------10-12-10-8---------|
D|----------10-7-8-10-8-7------------------12-8-10-|
A|------------------------10-8---------------------|
E|-------------------------------------------------|

La otra guitarra hace este gran solo:
e|-------------10------------------------------------------|
B|----------11----13-11------------------10-13-11-10-------|
G|-------12--------------12-12--------10-------------10-10-|
D|----12---------------------------12----------------------|
A|-10---------------------------10-------------------------|
E|---------------------------------------------------------|

                                |----Rápido------------|
e|-----------------------------------------------------|
B|-------10------10-----------11-13--16-15-13----------|
G|----10------10-----------12-----------------15-14-12-|
D|--7-------7--------10-13-----------------------------|
A|-----------------------------------------------------|
E|-----------------------------------------------------|

|--------Muy Rápido----------------------------------------|
-----------------------------------------------------------|
----------13-15-16-15-13-------------------13-15-16-15-13--|
-12-14-15----------------15-14-12-12-14-15-----------------|    Repitan tanto
-----------------------------------------------------------|    sea necesario
-----------------------------------------------------------|
-----------------------------------------------------------|
Добавлено: 07.06.2012
Другие материалы по этой песне:

Страница создана 11.05.2012
http://primanota.ru/alejandro-silva/el-sexto-mensajero-chords.htm
Привет, Гость.
Предлагаем пройти революционный курс по гитаре.
Подарок от PrimaNota.Ru, забирай!