PrimaNota.ru - самый крупный в мире бесплатный архив песенных текстов, аккордов, табулатур и нот


Alejandro Sanz - Como Te Echo De Menos - аккорды и текст, таба, видео

Регистрация Запомнить меня
Войти через:  Facebook Google Twitter Vk Yandex Mail.ru

Alejandro Sanz - Como Te Echo De Menos - аккорды и текст, таба, видео

Печатать
Просмотров: 164
Авторы: Alejandro Sanz

Como Te Echo De Menos
Alejandro Sanz
Transcrita por: Juan Camilo Reyes F.
E-mail: juanreyes@yahoo.com (cualquier duda o sugerencia)
Santafé de Bogotá D.C., Colombia 

Intro

G - Am+6 - C5 - Dsus4 - D - D/B - C (bis)

     G	   Am+6	      C5       Dsus4    D	    D/B	     C  C (bis)
E|----------3---3------3------3------3--3--2--0h2-0-------2----2-3-2--0--0-----|
B|---0----0-----1----1---1----1----1----3-----------3-----3---3-------1--1-----|
G|---0--0-------2--2-------2--0--0------2-------------2---2--2--------0--0-----|
D|---0----------------------------------0--------------------------------------|
A|--------------0-------------3---------------------------2-----------3--3-----|
E|---3-------------------------------------------------------------------------|


G		D	    
Existe un niño, que vive en mi
G/C		 C
Luchando por tenerte
G		D
Y revive momentos, lejanos ya
G/C		C
Y me hace pensar
Am      	   Dsus4  D  Bm
Confundiendo realidad
  		  E  E/F#  E7/Ab  E7	
Obligándome a escuchar
 Am C9/E
Tu voz diciendo de lejos
Cm
Como te hecho de menos
G	   Am
No puedo mas
Cm			G G7
Por qué te alejas

C			    D
Lo que me cuesta comprender
Bm				Em
Que aunque eres parte del ayer
	 C		Cm  Bm  Am7		    D
Y no me vale que undas tu cabeza mujer  no no 
C			D
Lo que te cuesta comprender
Bm				Em
Que aunque eres parte del ayer
	C		B7		  Em
Me desespero que también yo lo he sufrido
	Am		C
En este tiempo sin vernos
	D			C - C - C D
Como te he echado de menos

C			
Me besas y me hundo y se
Am					C - C - C
Que nadie en este mundo entendería
G   	Am+6	G/C	      Dsus4  D   	Bm	C - C
Por que queremos volver
Am      	  			 Dsus4  D  Bm
Perdiendo a cada instante un poco mas
		  E  E/F#  E7/Ab  E7	
Luchando por tenerte hasta el final 
Am C9/E
Sigo escuchando de lejos
Cm
Como te hecho de menos
Cm			G G7
Que fuerza será la que aun nos une





Algunas de las notas utilizadas no les conocía el nombre. 
Por lo tanto coloque el nombre de notas que musicalmente 
se le asemejan. Las notas usadas son las siguientes:


    G/C  Dsus4  E/F#  E7/Ab  C9/E  Am+6  Am7 
E|---3-----3-----0------0------7-----3----0-|
B|---3-----3-----0------0------5-----1----1-|
G|---0-----2-----1------1------5-----2----0-|
D|---2-----0-----2------2------5-----2----2-|
A|---3-----0-----2------2------7-----0----0-|
E|---X-----X-----2------4------5-----0----0-|
Добавлено: 30.04.2012
Другие материалы по этой песне:
  • Аккорды и текст

Страница создана 30.04.2012
http://primanota.ru/alejandro-sanz/como-te-echo-de-menos-chords.htm
Привет, Гость.
Предлагаем пройти революционный курс по гитаре.
Подарок от PrimaNota.Ru, забирай!