PrimaNota.ru - самый крупный в мире бесплатный архив песенных текстов, аккордов, табулатур и нот


Alejandra Guzman - Solo Un Secreto - таба, видео

Регистрация Запомнить меня
Войти через:  Facebook Google Twitter Vk Yandex Mail.ru

Alejandra Guzman - Solo Un Secreto - таба, видео

Печатать
Просмотров: 102
 http://www.objetivolaguzman.com/

Acordes:
   E:  022100
   B:  x2444x
   A:  x02220
  Dbm: x46654
  F#m  244222
Dsus2: xx0230
Aadd9/Db: x4x200


INTRO:
      E                     B
e|----0-0-0-0-0-0-0---0-----0-0-0-0-0-0-0---0---------|
B|----4-4-4-5-5-5-5/7-7-----4-4-4-5-5-5-5/7-7---------|
G|----------------------------------------------------|
D|----------------------------------------------------|
A|----------------------------------------------------|
E|----------------------------------------------------|
      A                  B
e|------------------------------------------------------------|
B|----0---0-0-0-0-0-0-0-0---0-0-0-0-0-0-0-0-------------------|
G|----4/6-6-6-4-4-4-2-2-2/4-4-4-4-4-4-4-4-4-------------------|
D|------------------------------------------------4-2-1-------|
A|------------------------------------------------------4-----|
E|------------------------------------------------------------|

ESTROFA:

         A                                     E
e|---------------------------------------------------------------------------|
B|---------------------------------------------------------------------------|
G|-------1---------------2--2----1-------------2-----2-----------------------|
D|-------2---------------2--2----2-------------2-----2-------------1h2-------|
A|-------0---------------0--0----0-------------0-----0-------------2---------|
E|-----------------------------------------------------------------0---------|
           no me llamas mas        y te nublas en un pensamiento
           ya no queda mas    que un baul tan lleno de recuerdos

e|---------------------------------------------|
B|---------------------------------------------|
G|---------------------------------------------|
D|----2------2---------1h2---2--------2--------|
A|----2--2h4---4-------2-----2---2h4----4------|
E|----0----------------0-----0-----------------|


 B                                     A
   esta soledad que se ha vuelto una rutina
         E  B
en mi vida,   que le voy hacer
                      A            B
yo con mi guitarra y tu en cada cantina

(CORO)

                E    B
soy solo un secreto,
               A      B
que tu llevas dentro,
          E     B
a cada momento,
                A     B
te nombro en silencio
                     E  B  A  B
y esto no se termina

 A                                                E
  sabes como amar, pero tambien sabes salir corriendo
A                                             E
  en la tempestad, a mi sola me golpea el viento
B
  no voy esperar que otra vez llueve
        A          E
en mi cuerpo, el deseo
B                                         A          B
   electricidad que se funde a fuego y se va, se termina

               E   B                 A       B
soy solo un secreto   que tu llevas dentro,
           E   B                    A   B
a cada momento   te nombro en silencio
                E   B                  A    B
soy solo un secreto    que tu llevas dentro
         E  Dbm      B           F#m   B
cada momento     te nombro en silencio   yeah

Dsus2                       Aadd9/Db
   y me voy como he llegado      tus mensajes ya he borrado
  E
y no no me arrepiento ya te di bastante tiempo
Dsus2               Aadd9/Db
   se que no voy a parar hasta encontrar
    B
el amor de verdad sin ser sin ser


e|------------------------------0-------|
B|------------------------------0-------|
G|------------------------------1-------|
D|---4---6---7-----4---6---7----2-------|
A|---4---7---7-----4---7---7----2-------|
E|---2---4---5-----2---4---5----0-------|


e|--------------------------------------|
B|------------------------------4-------|
G|------------------------------4-------|
D|---4---6---7-----4---6---7----4-------|
A|---4---7---7-----4---7---7----2-------|
E|---2---4---5-----2---4---5------------|


                E
soy solo un secreto,
               A      B
que tu llevas dentro,
          E     B
a cada momento,
                A     B
te nombro en silencio

                E    B
soy solo un secreto,
               A      B
que tu llevas dentro,
          E     Dbm
a cada momento,
    B          F#m
te nombro en silencio
 B
   y esto no se termina


RIFF DEL CORO:
e|-----------------------------|
B|-----------------------------|
G|--8-8-8--9-9-9--9/11-11------|
D|-----------------------------| 2x
A|--6-6-6--7-7-7--7/9--9-------|
E|-----------------------------|


e|---------------------------------------------------|
B|---------------------------------------------------|
G|---------------------------------------------------|
D|--9/11-11-11----9-9-9---7-7---7/9-9-9-9-9-9-9-9-9--|
A|---------------------------------------------------|
E|--7/9--9-9------7-7-7---5-5---5/7-7-7-7-7-7-7-7-7--|
Добавлено: 25.03.2012
Другие материалы по этой песне:
  • Аккорды и текст

Страница создана 25.03.2012
http://primanota.ru/alejandra-guzman/solo-un-secreto-chords.htm
Привет, Гость.
Предлагаем пройти революционный курс по гитаре.
Подарок от PrimaNota.Ru, забирай!