PrimaNota.ru - самый крупный в мире бесплатный архив песенных текстов, аккордов, табулатур и нот


Aleixa - Nonself - таба, видео

Регистрация Запомнить меня
Войти через:  Facebook Google Twitter Vk Yandex Mail.ru

Aleixa - Nonself - таба, видео

Печатать
Просмотров: 87
		   Non-self
by Aleixa
Tabbed by Tim Gutierrez (Aleixa's second guitarist.)
E-mail cgtar@aol.com if you *really* wamt to know his e-mail address.

NON-SELF (tune down one step-D,G,C,F,A,D)

 verse riff
hi---------------------------------------
-----------------------------------------
----------------------------------4-3----
-----2---------------3---2--------4-3-5--
-----2---------------1---2--------2-1-5--
lo---0-3pull0-3pull0-----0-3pull0-----3--

 chorus riff
hi-----------------------------------------------------------------------------
-------------------------------------------------------------------------------
-------------------------------------------------------------------------------
---9-8---7-5---5---9-8---7-5----9-8---7-5---5---9-8---7------------------------
---7-6-9-5-3-7-3---7-6-9-5-3----7-6-9-5-3-7-3---7-6-9-5-8----------------------
lo-----7-----5---------7------------7-----5---------7---6---------------------     
Добавлено: 11.11.2013
Другие материалы по этой песне:
  • Аккорды и текст

Страница создана 11.11.2013
http://primanota.ru/aleixa/nonself-chords.htm
Привет, Гость.
Предлагаем пройти революционный курс по гитаре.
Подарок от PrimaNota.Ru, забирай!