PrimaNota.ru - самый крупный в мире бесплатный архив песенных текстов, аккордов, табулатур и нот


Alcatrazz - Too Young To Die Too Drunk To Live - таба, видео

Регистрация Запомнить меня
Войти через:  Facebook Google Twitter Vk Yandex Mail.ru

Alcatrazz - Too Young To Die Too Drunk To Live - таба, видео

Печатать
Просмотров: 165
Уроки эстрадного вокала в Санкт-Петербурге
Авторы музыки: Yngwie J. Malmsteen, Graham Bonnet

-------------------------------------------------------------------------------
              Too Young To Die, Too Drunk To Live - Alcatrazz
-------------------------------------------------------------------------------
Band: Alcatrazz
Song: Too Young To Die, Too Drunk To Live
Album: No Parole From Rock 'N' Roll

Tabbed by: deathx88
Email: deathx88@yahoo.com

Tuning: Standard


Riff 1 x8
e|-----------------------------------|
B|-----------------------------------|
G|-----------------------------------|
D|-----------4-----------------4~----|
A|-----------------------------------|
E|--2--2--2-----2--2--2--2--2--------|


Riff 2 (verse) x2
e|-------------------------------------------------------------------|
B|-------------------------------------------------------------------|
G|-------------------------------------------------------------------|
D|----------4-----------------4~------------6-----------------6~-----|
A|-------------------------------------------------------------------|
E|--2----2-----2--2--2--2--2--------4----4-----4--4--4--4--4---------|

e|-----------------------------------------------------|
B|-----------------------------------------------------|
G|-----------------------------------------------------|
D|----------7-----------------7~-----7--------6--------|
A|-----------------------------------5--------4--------|
E|--5----5-----5--5--5--5--5---------------------------|


Riff 3 (Chorus a)
e|------------0----------------0-----------------------------------------------|
B|------------0----------------0-----------------------------------------------|
G|--4----4----1------4----4----1------6----6--------------------------2----1---|
D|--2----2----2------2----2----2------4----4----4----4----4--------------------|
A|------------2----------------2----------------4------------------------------|
E|------------0----------------0----------------2------------2--2--2-----------|


Riff 4 (chorus b) (guitar 1)
e|--------------------------------------------------------|
B|--------------------------------------------------------|
G|--------------------------------------------------------|
D|--0-----------------------------------------------------|
A|----------3------3---5---4-------4--------------4-------|
E|-----------------------------------------7----------7---|

e|------------------------------------------------------|
B|------------------------------------------------------|
G|------------------------------------------------------|
D|------------------------------------------------------|
A|------------------------------------4-----------------|
E|--5------7---5---4------4---5---7------------4--------|


Riff 4 (chorus b) (guitar 2)
e|-----------------------------------------------------------------------|
B|---------9---10----------9---10---10~--------9~---------------9---10---|
G|--11~-------------11~---------------------------------11~--------------|
D|-----------------------------------------------------------------------|
A|-----------------------------------------------------------------------|
E|-----------------------------------------------------------------------|

e|-------------------------------------------------------------------|
B|---------9---10---10~-----10---9---10~-----9~----------------------|
G|--11~-----------------------------------------------11~------------|
D|-------------------------------------------------------------------|
A|-------------------------------------------------------------------|
E|-------------------------------------------------------------------|


Bridge Riff x8
e|----------------------------------|
B|----------------------------------|
G|----------------------------------|
D|----------4-----------------4~----|
A|----------------------------------|
E|--2----2-----2--2--2--2--2--------|


Interlude Solo
e|-7--5-----------9--10--7-----------10--9--5-----------9--14--9--------------9|
B|-------7-----7------------7-----7------------7-----7------------10------10---|
G|----------6------------------7------------------6-------------------11-------|
D|-----------------------------------------------------------------------------|
A|-----------------------------------------------------------------------------|
E|-----------------------------------------------------------------------------|

e|-7--5-----------9--10--7-----------10--9--5-----------9--14--9--------------9|
B|-------7-----7------------7-----7------------7-----7------------10------10---|
G|----------6------------------7------------------6-------------------11-------|
D|-----------------------------------------------------------------------------|
A|-----------------------------------------------------------------------------|
E|-----------------------------------------------------------------------------|

e|-10--7-----------10--9--5-----------9--7--4-----------4--9--5---------|
B|--------7-----7------------7-----7-----------6-----6-----------7------|
G|-----------7------------------6-----------------7-----------------6~--|
D|----------------------------------------------------------------------|
A|----------------------------------------------------------------------|
E|----------------------------------------------------------------------|

e|-5--2-----------2--5--2-----------2--7--4-----------4--7--4-----------4--|
B|-------3-----3-----------4-----4-----------5-----5-----------6-----6-----|
G|----------2-----------------4-----------------4-----------------6--------|
D|-------------------------------------------------------------------------|
A|-------------------------------------------------------------------------|
E|-------------------------------------------------------------------------|

e|-9--5-----------9--10--7-----------10--14--9--------------9--17--14----------|
B|-------7-----7------------7-----7-------------10------10-------------14------|
G|----------6------------------7--------------------11---------------------14--|
D|-----------------------------------------------------------------------------|
A|-----------------------------------------------------------------------------|
E|-----------------------------------------------------------------------------|

e|-----17--19---------16---------11--------5------5--2-----------2--8--5-------|
B|-14-----------19-14------14-10------10-7---5----------4-----4-----------7----|
G|---------------------------------------------6-----------5-----------------8-|
D|-----------------------------------------------------------------------------|
A|-----------------------------------------------------------------------------|
E|-----------------------------------------------------------------------------|

e|----5--11--8--------------8--14--11--------------11--9-14-9------------9--|
B|-7------------10------10-------------13------13--------------9------9-----|
G|------------------11---------------------14---------------------11--------|
D|--------------------------------------------------------------------------|
A|--------------------------------------------------------------------------|
E|--------------------------------------------------------------------------|

e|--14--9------------14--13--9------------9--13--9---------9-----|
B|---------9------9-------------9------9------------9------------|
G|------------11-------------------10------------------10-----9--|
D|---------------------------------------------------------------|
A|---------------------------------------------------------------|
E|---------------------------------------------------------------|


Interlude Riff
e|--------------------------------------------------------------------------|x2
B|--------------------------------------------------------------------------|
G|--------------------------------------------------------------------------|
D|--------------------------------------------------------4--4--4--4--4--4--|
A|--------------------5--5--5--5--5--5--------------------------------------|
E|--2--2--2--2--2--2--------------------2--2--2--2--2--2--------------------|

e|---------------------------------------------------------------------------|
B|---------------------------------------------------------------------------|
G|---------------------------------------------------------------------------|
D|--------------------4--4--4--4--4--4--3--3--3--3--3--3--4--4--4--4--4--4---|
A|--5--5--5--5--5--5---------------------------------------------------------|
E|---------------------------------------------------------------------------|

e|---------------------------------------------------------------------------|
B|---------------------------------------------------------------------------|
G|---------------------------------------------------------------------------|
D|--7--7--7--7--7--7--4--4--4--4--4--4--9--9--9--9--9--9--6--6--6--6--6--6---|
A|--5--5--5--5--5--5--6--6--6--6--6--6--7--7--7--7--7--7--8--8--8--8--8--8---|
E|---------------------------------------------------------------------------|


e|---------------------------------------------------------------------------|
B|---------------------------------------------------------------------------|
G|---------------------------------------------------------------------------|
D|--4--4--4--4--4--4--7--7--7--7--7--7---------------------------------------|
A|--------------------5--5--5--5--5--5---------------------------------------|
E|--------------------------------------2--2--2--2--2--2--2--2--2--2--2--2---|

e|---------------------------------------------------------------------------|
B|---------------------------------------------------------------------------|
G|---------------------------------------------------------------------------|
D|--------------------------------------1--1--1--1--1--1--4--4--4--4--4--4---|
A|--------------------------------------3--3--3--3--3--3--5--5--5--5--5--5---|
E|--2--2--2--2--2--2--2--2--2--2--2--2---------------------------------------|

e|-----------------------------------------------------------------------------|
B|-----------------------------------------------------------------------------|
G|-----------------------------------------------------------------------------|
D|-7--7--7--7--7--7--10--10--10--10--10--10--7--7--7--7--7--7--7--7--7--7--7--7|
A|-9--9--9--9--9--9--12--12--12--12--12--12--4--4--4--4--4--4--4--4--4--4--4--4|
E|-----------------------------------------------------------------------------|

e|----------------------------------------|
B|----------------------------------------|
G|----------------------------------------|
D|--3--3--3--3--3--3--3--3--3--3--3--3----|
A|--4--4--4--4--4--4--4--4--4--4--4--4----|
E|----------------------------------------|


Solo (Riff 1 for rhythm guitar)
e|--16br---14--16~--------14--17-14-16-17-16-14-21-14-16-17-16-14-21-14-16-17-|
B|----------------------------------------------------------------------------|
G|----------------------------------------------------------------------------|
D|----------------------------------------------------------------------------|
A|----------------------------------------------------------------------------|
E|----------------------------------------------------------------------------|

e|--16-14-16br----14--19b------19-17-16-17~-----21b------21~------|
B|----------------------------------------------------------------|
G|----------------------------------------------------------------|
D|----------------------------------------------------------------|
A|----------------------------------------------------------------|
E|----------------------------------------------------------------|

e|--19-21-17-21-16-21----21-----------------------------------14-----------|
B|--------------------19----18-19-21-18-19----------------14------17b------|
G|-----------------------------------------14---16---16b-------------------|
D|-------------------------------------------------------------------------|
A|-------------------------------------------------------------------------|
E|-------------------------------------------------------------------------|

e|-----------10-12-14-12-10----10-------10----10-----------------------------|
B|--10-12-14----------------14----14-12----14----12-10-14-12-10-9-12-10-9----|
G|------------------------------------------------------------------------11-|
D|---------------------------------------------------------------------------|
A|---------------------------------------------------------------------------|
E|---------------------------------------------------------------------------|

e|--------12--------------------9--------------------------------------------|
B|-----14----15-14-12-15-14~------10-9-10-12-10-9----------------------------|
G|--14--------------------------------------------11-10-11-13-11-10-11~------|
D|---------------------------------------------------------------------------|
A|---------------------------------------------------------------------------|
E|---------------------------------------------------------------------------|

e|------------------9-------9-10----9-10-12-9-10-12-14-10-12-14-16-12-14-16-17|
B|--9-10-12-9-10-12---10-12------12-------------------------------------------|
G|----------------------------------------------------------------------------|
D|----------------------------------------------------------------------------|
A|----------------------------------------------------------------------------|
E|----------------------------------------------------------------------------|

e|--14-16-17-19-16-17-19-21~------19--17--19--17--17--17---19--17--17--17~---|
B|---------------------------------------------------------------------------|
G|---------------------------------------------------------------------------|
D|---------------------------------------------------------------------------|
A|---------------------------------------------------------------------------|
E|---------------------------------------------------------------------------|

e|-----------17-19-21-19-17----19-17----------17----------------17-19-21-19--|
B|--17-19-21----------------21-------21-19-21----21-19-17-19-21--------------|
G|---------------------------------------------------------------------------|
D|---------------------------------------------------------------------------|
A|---------------------------------------------------------------------------|
E|---------------------------------------------------------------------------|

e|--17----19-17----------17--------------------------------------------------|
B|-----21-------21-19-21----21-19-17-21-19-17-15-19-17-15-14-17-15-14----15--|
G|--------------------------------------------------------------------16-----|
D|---------------------------------------------------------------------------|
A|---------------------------------------------------------------------------|
E|---------------------------------------------------------------------------|

e|---------------------------------------|
B|--14----------------r14-16-14~---------|
G|-----16b-------------------------------|
D|---------------------------------------|
A|---------------------------------------|
E|---------------------------------------|


Harmony Riff (guitar 1) x2
e|----------------------------------------------------------------------------|
B|-----------------7------------------------------------10--9--7--------------|
G|--------6--7--9-----9--7--6------------------6--7--9------------9--7--6-----|
D|--7--9-----------------------9--7--6---7--9------------------------------10-|
A|----------------------------------------------------------------------------|
E|----------------------------------------------------------------------------|

e|----------------------------------------------------------------|
B|-----------------7--------------------------------9----10~------|
G|--------6--7--9-----9--7--6-----------11----10------------------|
D|--7--9-----------------------9--7--6----------------------------|
A|----------------------------------------------------------------|
E|----------------------------------------------------------------|


Harmony Riff (guitar 2) x2
e|-----------------------------------------------------------------------------|
B|-----------------------------------------------------------------------------|
G|-----------------7---------------------------------------11--9--7------------|
D|-------7--9--11-----11--9--7-------------------7--9--11------------11--9-7---|
A|9--11-------------------------11--9--8--9--11------------------------------11|
E|-----------------------------------------------------------------------------|

e|---------------------------------------------------------------------|
B|---------------------------------------------------------------------|
G|-------------------7----------------------------------10----11~------|
D|---------7--9--11-----11--9--7------------12----11-------------------|
A|--9--11-------------------------11--9--8-----------------------------|
E|---------------------------------------------------------------------|


Harmony Riff (guitar 3) x2
e|-----------------------------------------------------------|
B|-----------------------------------------------------------|
G|-----------------------------------------------------------|
D|--------------------------------7----6----10---11----------|
A|--4---------4---------4---------5----4----8----9-----------|
E|--2---------2---------2------------------------------------|


Ending Harmony Riff (guitar 1)
e|---------------------------------------------------------------------------|
B|---------------------------------------------------------------------------|
G|--------------------------------------------------------11-------11-13-----|
D|--------------------11-------11-12----11-12-14-11-12-14----12-14-------14--|
A|--11-12-14-11-12-14----12-14-------14--------------------------------------|
E|---------------------------------------------------------------------------|

e|-----------------------------------------------------------------------------|
B|--------------------12-------12-14----12-15-14-12----------------------------|
G|--11-13-14-11-13-14----13-14-------14-------------14-13-11-14-13-11-10-13----|
D|-----------------------------------------------------------------------------|
A|--------------------------------------------------------------------------12~|
E|-----------------------------------------------------------------------------|


Ending Harmony Riff (guitar 2)
e|---------------------------------------------------------------------------|
B|---------------------------------------------------------------------------|
G|---------------------------------------------------------------------------|
D|--------------------------------------------------------------7---------7--|
A|----------------------7---------7--9------7--9--11--7--9--11-----9--11-----|
E|--7--9--10--7--9--10-----9--10--------10-----------------------------------|

e|---------------------------------------------------------------------------|
B|---------------------------------------------------------------------------|
G|-----------------------------7---------7--9------7--11--9--7---------------|
D|--9------7--9--11--7--9--11-----9--11--------11---------------11--9--7--11-|
A|-----11--------------------------------------------------------------------|
E|---------------------------------------------------------------------------|

e|----------------------------|
B|----------------------------|
G|---------------11~----------|
D|--9--7------9---------------|
A|--------11------------------|
E|----------------------------|


Ending Guitar Solo
e|--------------------13-14~---13-14-13--------------------------------------|
B|-----------12-14-15-------------------15-14-12----------12-14-12-----------|
G|--11-13-14-------------------------------------14-13-14----------14-13-14--|
D|---------------------------------------------------------------------------|
A|---------------------------------------------------------------------------|
E|---------------------------------------------------------------------------|

e|---------------------------------------------------------------------------|
B|--12-14-12----------12-14-12----------12-14-12-----------------------------|
G|-----------14-13-14----------14-13-14----------14-13-14-13-11---9---7---6~-|
D|---------------------------------------------------------------------------|
A|---------------------------------------------------------------------------|
E|---------------------------------------------------------------------------|


Ending Chord
e|------------------|
B|------------------|
G|------------------|
D|--4---------------|
A|--4---------------|
E|--2---------------|


| /  slide up
| \  slide down
| h  hammer-on
| p  pull-off
| ~  vibrato
| +  harmonic
| x  Mute note
| b  bend note
| br bend and release note
===============================================================================
Добавлено: 25.05.2012
Вам также может быть интересно:
Другие материалы по этой песне:

Страница создана 08.04.2012
http://primanota.ru/alcatrazz/too-young-to-die-too-drunk-to-live-chords.htm
Привет, Гость.
Предлагаем пройти революционный курс по гитаре.
Подарок от PrimaNota.Ru, забирай!