PrimaNota.ru - самый крупный в мире бесплатный архив песенных текстов, аккордов, табулатур и нот


Alcatrazz - Jet To Jet - текст песни, таба, видео

Регистрация Запомнить меня
Войти через:  Facebook Google Twitter Vk Yandex Mail.ru

Alcatrazz - Jet To Jet - текст песни, таба, видео

Печатать
Просмотров: 181
Уроки эстрадного вокала в Санкт-Петербурге
Авторы музыки: Yngwie J. Malmsteen
Авторы текста: Graham Bonnet
-------------------------------------------------------------------------------
                             Jet To Jet - Alcatrazz
-------------------------------------------------------------------------------
Band: Alcatrazz
Song: Jet To Jet
Album: No Parole From Rock 'N' Roll

Tabbed by: deathx88
Email: deathx88@yahoo.com

Tuning: Standard


Main Riff
Riff 1 (guitar 1) x4
e|---------------------------------------------------------------------------|
B|---------------------------------------------------------------------------|
G|------7------9--------7------6---------------------------------------------|
D|------7------9--------7------7--------9------------------------------------|
A|--------------------------------------9------------------------------------|
E|--7-------7-----7--7------7-----7--7---------------------------------------|

e|---------------------------------------------------------------------------|
B|---------------------------------------------------------------------------|
G|------7------6--------7------6---------------------------------------------|
D|------7------7--------7------7--------9------------------------------------|
A|--------------------------------------9------------------------------------|
E|--7-------7-----7--7------7-----7--7---------------------------------------|


Riff 1 (guitar 2) (first time only)
e|---------------------------------------------------------------------------|
B|---------------------------------------------------------------------------|
G|---------------------------------------------------------------------------|
D|--9-----------------------------------9---------------------9--------------|
A|--9-----------------------------------9---------------------9--------------|
E|--7-----------------------------------7---------------------7--------------|


Chorus Riff
Riff 2 (guitar 1) x2                  (guitar 2) x2
e|--------------------------------| e|--------------------------------|
B|--7~----5----8-----7----5-------| B|-------------5------------------|
G|--------------------------------| G|--7~----6----------7----6-------|
D|--------------------------------| D|--------------------------------|
A|--------------------------------| A|--------------------------------|
E|--------------------------------| E|--------------------------------|


Riff 2 (guitar 3)
e|---------------------------------------------------------------------------|
B|---------------------------------------------------------------------------|
G|---------------------------------------------------------------------------|
D|--2-------------------3------------------4---------------------------------|
A|--0-------------------1------------------2---------------------------------|
E|---------------------------------------------------------------------------|


Riff 3 (verse Riff) x2
e|------------------------------------------------------------------|
B|------------------------------------------------------------------|
G|------------------------------------------------------------------|
D|------------------------------------------------------------------|
A|------------------------------------------------------------------|
E|--7-7-7-7-7-7-7-7-7-7-7-7-7-7-7-7-6-6-6-6-6-6-6-6-6-6-6-6-6-6-6-6-|

e|-----------------------------------------------------------------|
B|-----------------------------------------------------------------|
G|-----------------------------------------------------------------|
D|-----------------------------------------------------------------|
A|-----------------------------------------------------------------|
E|-5-5-5-5-5-5-5-5-5-5-5-5-5-5-5-5-0-0-0-0-2-2-2-2-3-3-3-3-5-5-5-5-|


Riff 4 (guitar 1)
e|------3-----3-----------2----------------------------------------------|
B|------3-----3-----------2-------------------------7--------------------|
G|------4-----4-----------3-------------------------7--------------------|
D|------5-----5-----------4-------------------------7--------------------|
A|--------------------------------------2---4---5---------9----7----5----|
E|--3-----------------2---------2---5------------------------------------|

e|-------------------------3----------------2--------6--------|
B|-------------------------3----------------2--------5--------|
G|-------------------------4----------------3--------6--------|
D|-------------------------5----------------4--------4--------|
A|--4-----2---------------------------------------------------|
E|-------------5-----3----------------------------------------|


Riff 4 (guitar 2)
e|-------------------------------------------------------------------|
B|-------------------------------------------------------------------|
G|-------------------------------------------------------------------|
D|------------------------7------------------------------------------|
A|--5----------4----------5----------7----------5-----------4--------|
E|--3----------2---------------------5----------3-----------2--------|


Interlude Solo (guitar 1) x2
e|--------------------------------------19-15-17-19-17-15-19-15-17-19-17-15--|
B|--19-15-17-19-17-15-19-15-17-19-17-15--------------------------------------|
G|---------------------------------------------------------------------------|
D|---------------------------------------------------------------------------|
A|---------------------------------------------------------------------------|
E|---------------------------------------------------------------------------|

e|--------------------------------------17-14-15-17-15-14-17-14-15-17-15-14--|
B|--17-14-15-17-15-14-17-14-15-17-15-14--------------------------------------|
G|---------------------------------------------------------------------------|
D|---------------------------------------------------------------------------|
A|---------------------------------------------------------------------------|
E|---------------------------------------------------------------------------|

e|--------------------------------------15-12-14-15-14-12-15-12-14-15-14-12--|
B|--15-12-14-15-14-12-15-12-14-15-14-12--------------------------------------|
G|---------------------------------------------------------------------------|
D|---------------------------------------------------------------------------|
A|---------------------------------------------------------------------------|
E|---------------------------------------------------------------------------|

e|------------------------------------------------------------|
B|--14-11-12-14-12-11-14-11-12-14-12-11-15--------14~---------|
G|------------------------------------------------------------|
D|------------------------------------------------------------|
A|------------------------------------------------------------|
E|------------------------------------------------------------|


Interlude Solo (guitar 2) x2
e|--------------------------------------15-12-14-15-14-12-15-12-14-15-14-12--|
B|--15-12-14-15-14-12-15-12-14-15-14-12--------------------------------------|
G|---------------------------------------------------------------------------|
D|---------------------------------------------------------------------------|
A|---------------------------------------------------------------------------|
E|---------------------------------------------------------------------------|

e|--------------------------------------14-10-12-14-12-10-14-10-12-14-12-10--|
B|--14-10-12-14-12-10-14-10-12-14-12-10--------------------------------------|
G|---------------------------------------------------------------------------|
D|---------------------------------------------------------------------------|
A|---------------------------------------------------------------------------|
E|---------------------------------------------------------------------------|

e|----------------------------------12-8-10-12-10-8-12-8-10-12-10-8--|
B|--12-8-10-12-10-8-12-8-10-12-10-8----------------------------------|
G|-------------------------------------------------------------------|
D|-------------------------------------------------------------------|
A|-------------------------------------------------------------------|
E|-------------------------------------------------------------------|

e|----------------------------------------------------|
B|--11-7-9-11-9-7-11-7-9-11-9-7-12--------11~---------|
G|----------------------------------------------------|
D|----------------------------------------------------|
A|----------------------------------------------------|
E|----------------------------------------------------|


Interlude Rhythm
e|--2--------0--------0--------2--------3--------0-----------------------------|
B|--3--------0--------2--------3--------3--------1--------5--------5-----4-----|
G|--4--------0--------2--------2--------0--------0--------3--------4-----3-----|
D|--4--------2--------2--------0--------0--------2--------2--------2-----2-----|
A|--------------------------------------------------------4--------4-----4-----|
E|-----------------------------------------------------------------------------|


Guitar solo
e|------------16-17-16----19-16-17----16----------------------------------16-|
B|--19b----------------19----------19----17-19-16-17----16-17----------17----|
G|---------------------------------------------------18-------18----18-------|
D|---------------------------------------------------------------------------|
A|---------------------------------------------------------------------------|
E|---------------------------------------------------------------------------|

e|--21-16-------16-12-------12-9-------------------------------------------|
B|--------17----------14---------9---10----9-------------------------------|
G|-----------18----------13--------9----11---9-11br----9---8---------------|
D|-----------------------------------------------------------------11------|
A|---------------------------------------------------------------------13--|
E|-------------------------------------------------------------------------|

e|--------------------------------------16-17-16-14-----------19b----------|
B|--------------------------------------------------17-16-14---------------|
G|-----11-13----11-13-14-13-11---------------------------------------------|
D|--14-------14----------------14-13-11------------------------------------|
A|-------------------------------------------------------------------------|
E|-------------------------------------------------------------------------|

e|-----------14-16-14----14-16-17-16-14-16-14--------------|
B|--14-16-17----------17----------------------17b----------|
G|---------------------------------------------------------|
D|---------------------------------------------------------|
A|---------------------------------------------------------|
E|---------------------------------------------------------|

e|--20-17----20-17----17-14----------14-17-14----17-14----14-11----------11--|
B|--------19-------19-------16----16----------16-------16-------13----13-----|
G|-----------------------------17----------------------------------14--------|
D|---------------------------------------------------------------------------|
A|---------------------------------------------------------------------------|
E|---------------------------------------------------------------------------|

e|--14-11----14-11----11-8----------11~--------19/21-21-21-21\19-19-19-19/21-|
B|--------13-------13------10----10------------------------------------------|
G|----------------------------11---------------------------------------------|
D|---------------------------------------------------------------------------|
A|---------------------------------------------------------------------------|
E|---------------------------------------------------------------------------|

e|-21-21-21\17-17-17-17/19-19-19-19\17-17-17-17\16-16-16-19-19br----------|
B|------------------------------------------------------------------------|
G|------------------------------------------------------------------------|
D|------------------------------------------------------------------------|
A|------------------------------------------------------------------------|
E|------------------------------------------------------------------------|

e|-----------14-16-17-16-14----------12-14-16-14-12----------11-12-14-12-11--|
B|--14-16-17----------------12-14-16----------------10-12-14-----------------|
G|---------------------------------------------------------------------------|
D|---------------------------------------------------------------------------|
A|---------------------------------------------------------------------------|
E|---------------------------------------------------------------------------|

e|--12-11-------11-----------------------------------------------------------|
B|--------14-12----14-12-10-14-12-10-9-12-10-9----10-9--------------------9--|
G|---------------------------------------------11------11b-------r9--11------|
D|---------------------------------------------------------------------------|
A|---------------------------------------------------------------------------|
E|---------------------------------------------------------------------------|

e|----------9-----------------------------------------------|
B|--10--12-----12-10-12-10-9-----9--------------------------|
G|---------------------------11-----9--11--8--9-------------|
D|-----------------------------------------------11~--------|
A|----------------------------------------------------------|
E|----------------------------------------------------------|

e|--------14-16-16-16-16-16-16-16-17-16-14----16-14----------16-16-16-16-17-16-|
B|--14-17----------------------------------17-------17-16-14-------------------|
G|-----------------------------------------------------------------------------|
D|-----------------------------------------------------------------------------|
A|-----------------------------------------------------------------------------|
E|-----------------------------------------------------------------------------|

e|-14----------16-17-16-14-----------------------------------------------------|
B|----17-16-14-------------17-16-14--------------------------------------------|
G|----------------------------------16-14-13-----------------------------------|
D|-------------------------------------------16-14-13--------------------------|
A|----------------------------------------------------16-15------14~-----------|
E|-----------------------------------------------------------------------------|


Solo (guitar 2) x2
e|----------------------------------------------------------------------------|
B|----------------------------------------------------------------------------|
G|----------------------------------------------------------------------------|
D|--------11----13----14-------------------------11----13----14----13~--------|
A|--11--------------------------12~--------11---------------------------------|
E|----------------------------------------------------------------------------|

e|----------------------------------------------------------------------------|
B|----------------------------------------------------------------------------|
G|----------------------------------------------------------------------------|
D|--------11-----13----14-----------------------------------------------------|
A|--11--------------------------12~--------11~--------------------------------|
E|----------------------------------------------------------------------------|


Solo (guitar 3) x2
e|------------------------------------------------------------------------|
B|--5--------2--------5--------4--------5--------5------------------------|
G|--6--------2--------6--------4--------6--------6--------5-------5-------|
D|--6--------2--------6--------4--------6--------6--------4-------4-------|
A|--4--------0--------4--------2--------4--------4--------6-------6-------|
E|--------------------------------------------------------4-------4-------|


ending chord
e|-----------------------------------------|
B|-----------------------------------------|
G|-----------------------------------------|
D|--9--------------------------------------|
A|--9--------------------------------------|
E|--7--------------------------------------|


| /  slide up
| \  slide down
| h  hammer-on
| p  pull-off
| ~  vibrato
| +  harmonic
| x  Mute note
| b  bend note
| br bend and release note
===============================================================================
Добавлено: 14.07.2012
Вам также может быть интересно:
Другие материалы по этой песне:

Страница создана 27.03.2012
http://primanota.ru/alcatrazz/jet-to-jet-chords.htm
Привет, Гость.
Предлагаем пройти революционный курс по гитаре.
Подарок от PrimaNota.Ru, забирай!