PrimaNota.ru - самый крупный в мире бесплатный архив песенных текстов, аккордов, табулатур и нот


Alcatrazz - Hiroshima Mon Amour - текст песни, таба, видео

Регистрация Запомнить меня
Войти через:  Facebook Google Twitter Vk Yandex Mail.ru

Alcatrazz - Hiroshima Mon Amour - текст песни, таба, видео

Печатать
Просмотров: 160
Авторы музыки: Yngwie J. Malmsteen
Авторы текста: Graham Bonnet
-------------------------------------------------------------------------------
                        Hiroshima Mon Amour - Alcatrazz
-------------------------------------------------------------------------------
Band: Alcatrazz
Song: Hiroshima Mon Amour
Album: No Parole From Rock 'N' Roll

Tabbed by: deathx88
Email: deathx88@yahoo.com

Tuning: Standard


Intro Solo
e|-----------------------------------------------14--------------------------|
B|-----------------------------------14--15--17------17~--------------19~----|
G|--16b------16br---14~------14--16------------------------------------------|
D|---------------------------------------------------------------------------|
A|---------------------------------------------------------------------------|
E|---------------------------------------------------------------------------|

e|-----------------------------------------------------------------|
B|--17~------15--17--15--14---15---17---19---19b------19~----------|
G|-----------------------------------------------------------------|
D|-----------------------------------------------------------------|
A|-----------------------------------------------------------------|
E|-----------------------------------------------------------------|

e|-----------15-17-19-17-15----17-15-14----14-15-14-------14-------------------|
B|--15-17-19----------------15----------17----------17-15----17-15-14-17-15-14-|
G|-----------------------------------------------------------------------------|
D|-----------------------------------------------------------------------------|
A|-----------------------------------------------------------------------------|
E|-----------------------------------------------------------------------------|

e|--------14-19-14-------------14-17-15-14----15-14----------14-----------|
B|-----15----------15----14-17-------------17-------17-15-17----17-15-14--|
G|--16----------------16--------------------------------------------------|
D|------------------------------------------------------------------------|
A|------------------------------------------------------------------------|
E|------------------------------------------------------------------------|

e|-------------------------------------21b------21-21-19---19--17---17--15--15~|
B|-12~------------17-19-20-21-19-20-21-----------------------------------------|
G|-------16-18-19--------------------------------------------------------------|
D|-----------------------------------------------------------------------------|
A|-----------------------------------------------------------------------------|
E|-----------------------------------------------------------------------------|

e|--17-15-14-------------------------15-17-19-17-15-17-15-14----14-15-14--|
B|-----------17-14-15-17-14-15-17-19-------------------------17-----------|
G|------------------------------------------------------------------------|
D|------------------------------------------------------------------------|
A|------------------------------------------------------------------------|
E|------------------------------------------------------------------------|

e|--------------15-17-19-15-19-21-21br-br-br-21----|
B|--17-15-17-19------------------------------------|
G|-------------------------------------------------|
D|-------------------------------------------------|
A|-------------------------------------------------|
E|-------------------------------------------------|


Riff 1 x2
e|---------------------------------------------------------------------------|
B|------------------------3------3-------------------------------------------|
G|--4--4--2--4------4--2--0------2-------------------------------------------|
D|--4--4--2--4------4--2--0------0----------------------x-x------------------|
A|--2--2--0--2------2--0--0------0------4--4--2--4------x-x--4--4--2--4------|
E|------------------------3-------------2--2--0--2------x-x--2--2--0--2------|


Riff 2 (verse 1)
e|-----------------------------------------------------------------------|
B|-----------------------------------------------------------------------|
G|-----------------------------------------------------------------------|
D|--4--4--2--4------4--4--2--4------4--4--2--4------4--4--2--4------x-x--|
A|--2--2--0--2------2--2--0--2------2--2--0--2------2--2--0--2------x-x--|
E|------------------------------------------------------------------x-x--|

e|-----------------------------------------------------------------------|
B|-----------------------------------------------------------------------|
G|-----------------------------------------------------------------------|
D|--------------------------------------------------4--4--2--4------x-x--|
A|--4--4--2--4------4--4--2--4------4--4--2--4------2--2--0--2------x-x--|
E|--2--2--0--2------2--2--0--2------2--2--0--2----------------------x-x--|


Riff 3 (chorus) x2
e|--------------------------------------------------------------------|
B|--3~----------------------------------------------------------------|
G|--2~-----------------0----2----4--4--2--4-----------4--4--2--4------|
D|--0-------------4----0----2----4--4--2--4------x-x--4--4--2--4------|
A|--0--------2----4----x----0----2--2--0--2------x-x--2--2--0--2------|
E|-----------0----2----3-------------------------x-x------------------|


Riff 2 (verse 2)
e|-----------------------------------------------------------------------|
B|-----------------------------------------------------------------------|
G|-----------------------------------------------------------------------|
D|--4--4--2--4------4--4--2--4------4--4--2--4------4--4--2--4------x-x--|
A|--2--2--0--2------2--2--0--2------2--2--0--2------2--2--0--2------x-x--|
E|------------------------------------------------------------------x-x--|

e|-----------------------------------------------------------------------|
B|-----------------------------------------------------------------------|
G|-----------------------------------------------------------------------|
D|--------------------------------------------------4--4--2--4------x-x--|
A|--4--4--2--4------4--4--2--4------4--4--2--4------2--2--0--2------x-x--|
E|--2--2--0--2------2--2--0--2------2--2--0--2----------------------x-x--|


Riff 3 (chorus)
e|--------------------------------------------------------------------|x3
B|--3~----------------------------------------------------------------|
G|--2~-----------------0----2----4--4--2--4-----------4--4--2--4------|
D|--0-------------4----0----2----4--4--2--4------x-x--4--4--2--4------|
A|--0--------2----4----x----0----2--2--0--2------x-x--2--2--0--2------|
E|-----------0----2----3-------------------------x-x------------------|

e|------------------------------------------------|
B|--3~--------------------------------------------|
G|--2~-----------------0----2----4--4--2--4-------|
D|--0-------------4----0----2----4--4--2--4-------|
A|--0--------2----4----x----0----2--2--0--2-------|
E|-----------0----2----3--------------------------|

e|-----------------------------------------------------|
B|--3~-------------------------------------------------|
G|--2~-------2--------4--4--2--4------4--4--2--4-------|
D|--0--------2--------4--4--2--4------4--4--2--4-------|
A|--0--------0--------2--2--0--2------2--2--0--2-------|
E|-----------------------------------------------------|


Solo (rhythm for the solo are riff 1 and riff 3)
e|-----------------------------------------------------------|
B|--19b----19~-------19br---17---19--17-19-17-15---14---15---|
G|-----------------------------------------------------------|
D|-----------------------------------------------------------|
A|-----------------------------------------------------------|
E|-----------------------------------------------------------|

e|--------14-19-14----------------14-15-14----14~----15--14------------------|
B|-----15----------15----14-15-17----------17----------------17--15--14~-----|
G|--16----------------16-----------------------------------------------------|
D|---------------------------------------------------------------------------|
A|---------------------------------------------------------------------------|
E|---------------------------------------------------------------------------|

e|--------------------------------------------------14-------14-15----14-15--|
B|-----------------------14-15----14-15-17-14-15-17----15-17-------17--------|
G|--12--11--12--14~---16-------16--------------------------------------------|
D|---------------------------------------------------------------------------|
A|---------------------------------------------------------------------------|
E|---------------------------------------------------------------------------|

e|--17-15-17-19-15-17-19b~--------19br-----17---19b--------|
B|---------------------------------------------------------|
G|---------------------------------------------------------|
D|---------------------------------------------------------|
A|---------------------------------------------------------|
E|---------------------------------------------------------|

e|-----------------------------------------------------------------------------|
B|--10b-------10b---10b---10b---10b---10b---10b---10b---10b---10b---10b---10b--|
G|-----------------------------------------------------------------------------|
D|-----------------------------------------------------------------------------|
A|-----------------------------------------------------------------------------|
E|-----------------------------------------------------------------------------|

e|--7----------------------------------------------------------------------|
B|----10-7-----------------7-10-7----7-------------------------------------|
G|---------9b-----7--9~-----------10-----10-9-7---9-7-----9b~---7---9-7----|
D|----------------------------------------------9-----9-7---------9-----9--|
A|-------------------------------------------------------------------------|
E|-------------------------------------------------------------------------|

e|-------------------------------------------15-17-15-14----------14-15--|
B|----------------------------------14-15-17-------------17-15-13--------|
G|--------------11----------16~------------------------------------------|
D|-----11-12-14----14-12-11----------------------------------------------|
A|--14-------------------------------------------------------------------|
E|-----------------------------------------------------------------------|

e|--14-12-14-12----------12--------------------------------------|
B|--------------15-14-15----15-14-12-11-14-12-12-11-12-14-12~----|
G|---------------------------------------------------------------|
D|---------------------------------------------------------------|
A|---------------------------------------------------------------|
E|---------------------------------------------------------------|

e|---------------------------------------------------------------------------|
B|--12-11--------------------------------------------------------------------|
G|--------14-12-11----12-11----------------------11-12-14-12-11--------------|
D|-----------------14-------15-12-11----11-12-14----------------14-12-11-----|
A|-----------------------------------14----------------------------------14--|
E|---------------------------------------------------------------------------|

e|-----------------------------------------------------12-14-15-14-12--------|
B|--------------------------------11-12-14-15-12-14-15----------------15-14--|
G|-----------------------11-12-14--------------------------------------------|
D|--12----------11-12-14-----------------------------------------------------|
A|-----14-13-14--------------------------------------------------------------|
E|---------------------------------------------------------------------------|

e|---------------------------------------------------------------------------|
B|--12~------12---14---15---15b----15----14-----------------14-15------------|
G|---------------------------------------------16----16b-----------16~-------|
D|---------------------------------------------------------------------------|
A|---------------------------------------------------------------------------|
E|---------------------------------------------------------------------------|

e|--------14-17-15-14----15-14----------14-----------------------------------|
B|-----15-------------17-------17-15-17----17-15-14-17-15-14----15-14----14--|
G|--16-------------------------------------------------------16-------16-----|
D|---------------------------------------------------------------------------|
A|---------------------------------------------------------------------------|
E|---------------------------------------------------------------------------|

e|-----------------------------------------------|
B|-------------14-15-----------------------------|
G|--16~-----16--------12----11----9----7~--------|
D|-----------------------------------------------|
A|-----------------------------------------------|
E|-----------------------------------------------|


Rhythm for solo
e|---------------------------------------------------------------------------|x2
B|------------------------3------3-------------------------------------------|
G|--4--4--2--4------4--2--0------2-------------------------------------------|
D|--4--4--2--4------4--2--0------0----------------------x-x------------------|
A|--2--2--0--2------2--0--0------0------4--4--2--4------x-x--4--4--2--4------|
E|------------------------3-------------2--2--0--2------x-x--2--2--0--2------|

e|--------------------------------------------------------------------|x2
B|--3~----------------------------------------------------------------|
G|--2~-----------------0----2----4--4--2--4-----------4--4--2--4------|
D|--0-------------4----0----2----4--4--2--4------x-x--4--4--2--4------|
A|--0--------2----4----x----0----2--2--0--2------x-x--2--2--0--2------|
E|-----------0----2----3-------------------------x-x------------------|


(keyboard solo)


Riff 2 (verse 3)
e|-----------------------------------------------------------------------|
B|-----------------------------------------------------------------------|
G|-----------------------------------------------------------------------|
D|--4--4--2--4------4--4--2--4------4--4--2--4------4--4--2--4------x-x--|
A|--2--2--0--2------2--2--0--2------2--2--0--2------2--2--0--2------x-x--|
E|------------------------------------------------------------------x-x--|

e|-----------------------------------------------------------------------|
B|-----------------------------------------------------------------------|
G|-----------------------------------------------------------------------|
D|--------------------------------------------------4--4--2--4------x-x--|
A|--4--4--2--4------4--4--2--4------4--4--2--4------2--2--0--2------x-x--|
E|--2--2--0--2------2--2--0--2------2--2--0--2----------------------x-x--|


Riff 3 (chorus) x4
e|--------------------------------------------------------------------|
B|--3~----------------------------------------------------------------|
G|--2~-----------------0----2----4--4--2--4-----------4--4--2--4------|
D|--0-------------4----0----2----4--4--2--4------x-x--4--4--2--4------|
A|--0--------2----4----x----0----2--2--0--2------x-x--2--2--0--2------|
E|-----------0----2----3-------------------------x-x------------------|


Ending Riff
e|-----------------------------------------------|
B|--3~-------------------------------------------|
G|--2~-----------------0----2----4--4--2--4------|
D|--0-------------4----0----2----4--4--2--4------|
A|--0--------2----4----x----0----2--2--0--2------|
E|-----------0----2----3-------------------------|


| /  slide up
| \  slide down
| h  hammer-on
| p  pull-off
| ~  vibrato
| +  harmonic
| x  Mute note (dead note)
| b  bend note
| br bend and release note
===============================================================================
Добавлено: 09.05.2012
Другие материалы по этой песне:

Страница создана 23.02.2012
http://primanota.ru/alcatrazz/hiroshima-mon-amour-chords.htm
Привет, Гость.
Предлагаем пройти революционный курс по гитаре.
Подарок от PrimaNota.Ru, забирай!