PrimaNota.ru - самый крупный в мире бесплатный архив песенных текстов, аккордов, табулатур и нот


Albin De La Simone - Ma Crise - таба, видео

Регистрация Запомнить меня
Войти через:  Facebook Google Twitter Vk Yandex Mail.ru

Albin De La Simone - Ma Crise - таба, видео

Печатать
Просмотров: 84
-------------------------------------------------------------------------------
                             MA CRISE - Albin de la Simon
-------------------------------------------------------------------------------
Tabbed by: Jeremy Lavine
Tuning: Standard, capo on 4th fret

Chord fingerings (named relative to capo):
   Am  F  F-5  Bb  Ebm  Ddim
e|  0  1   1    1   x    1
B|  1  1   0    3   3    0
G|  2  2   2    3   2    1
D|  2  3   3    3   3    0
A|  0  1   2    1   1    x
E|  x  1   x    x   x    x


Am
... Un jour la vie est belle un euphorie nouvelle
F                           F-5
... Pour un oui pour un non ... tout va bien pour de bon
Am
... Un jour je suis croyant végétalien pratiquant
F                           F-5
... Plus de sel ni de pain, ... plus de lait ni de vin

Am
... Un jour je m'exaspère j'ai pas les mots je les perds
F
... Je trépigne, je m'égare
F-5                      B
... Un jour je ressemble à mon père

Ebm
.. C'est la crise c'est la crise
      Ddim
Qui m'épuise rien à faire
Ebm
..C'est la crise c'est la crise
             Ddim     Ebm
Qui s'éternise ... on va s'y faire ...

[And so on with the chords...]

Un jour je donne, je donne, je donne, je donne
Le cœur sur la main, sur le cœur
Un jour je parle fort à raison et à tord
Je m'emballe, je digresse,
Je m'affale et vous délaisse
Un jour je broie du noir
Miné par mes déboires
De la veille et de l'avant veille
Et tout à coup tout m'émerveille

C'est la crise c'est la crise
Qui m'épuise rien à faire
C'est la crise c'est la crise
Qui s'éternise on va s'y faire

Un jour je n'y crois plus pas le coup pas un clou
Moitié plein moitié bu tout est flou tout es fou
Et toc un coup du ciel à nouveau la vie est belle
Pour un oui pour un non tout va bien pour de bon

C'est la crise c'est la crise
Qui m'épuise rien à faire
C'est la crise c'est la crise
Qui s'éternise on va s'y faire
C'est la crise c'est la crise
On va s'y faire


======== ALTERNATIVE VERSION =========

From the piano clip: https://www.youtube.com/watch?v=zcZEgeXj7F0
One half-step lower than CD version

Intro / Verse

   Cm              G#               G#-5
e|-3---------------4-------4-----------------------|
B|------4--4----4-------4-------4---3----3-3----3--|
G|----5-------5-------5-------5--------5------5----|
D|---5-------5-------6---6---6---6----6------6-----|
A|----------------------------------5------5-----5-|
E|-------------------------------------------------|

Bridge
   C#
e|-----------------4-------4----------------------|
B|-6----6--6----6-------6-------6-----------------|
G|----6-------6-------6-------6-------------------|
D|---6---6---6---6---6---6---6---6----------------|
A|------------------------------------------------|
E|------------------------------------------------|

Chorus
       "C'est la crise ..  m'epuise..  faire..          C'est.. eternise..  On va s'y faire
   F#m                             Fdim      F#m     C#      F#m     Fdim      F#m
e|---------------------------------------------------------------------------------------------|
B|-7----7--7----7--7----7--7----7--9-----9---7----7--6----6--7----7--9-----9---7----7--7----7--|
G|----6-------6-------6-------6--------9--------6-------6-------6--------9--------6-------6----|
D|---7---7---7---7---7---7---7---7---10---10---7---7---6---6---7---7---10---10---7---7---7---7-|
A|---------------------------------------------------------------------------------------------|
E|---------------------------------------------------------------------------------------------|
Добавлено: 18.06.2013
Вам также может быть интересно:
Другие материалы по этой песне:
  • Аккорды и текст

Страница создана 18.06.2013
http://primanota.ru/albin-de-la-simone/ma-crise-chords.htm
Привет, Гость.
Предлагаем пройти революционный курс по гитаре.
Подарок от PrimaNota.Ru, забирай!