PrimaNota.ru - самый крупный в мире бесплатный архив песенных текстов, аккордов, табулатур и нот


Albi - For My Crypt - таба, видео

Регистрация Запомнить меня
Войти через:  Facebook Google Twitter Vk Yandex Mail.ru

Albi - For My Crypt - таба, видео

Печатать
Просмотров: 166
Уроки эстрадного вокала в Санкт-Петербурге
This is one of my songs. It's about one man in the graveyard lives with his own
crypt and loves it. A little morbid :) 
This isn't the final version, but it's better than nothing :) 


+---------------------------------------------------------------+
+---------------------------------------------------------------+
+---------------------------------------------------------------+
|  Title : For my crypt                                         |
|  Author : Albi                                                |
|  Release : 2007.                                              |
|  Tuning : Dropped-C Tuning (eADGBE -> cGCFAD)                 |
|           (both acoustic and distort guitar)                  |
|  Tempo : 85 bpm                                               |
+---------------------------------------------------------------+

Intro

Verse
Where is my hand
do you know??
I can't find
but I'm not lost.

Your stoneface makes me
feel so good,
my pillow is made of
little rocks.

I like this place
because you are here,
you're my friend
and I won't made

any bad for you because
you're for me
so if you need me
I will stay


Bridge:
Here in graveyard
and be waiting
The time when we
pla-a-ay.

With our hands
make each other dead
I never live with them
agai-i-in...


Verse
When you came in
our territory
I will catch you
And watch your bloody

face in the shadows
not far away
from the safe
place you live.

Someone says
I am evil
I have rotten ghost
instead of spirit.

I'm not the only
thing in you,
but you always cower
show the truth...



Bridge (2x)


Intro (2x) - acoustic
D|------------------|------------------|------------------|------------------||
A|------------------|------------------|------------------|------------------||
F|------------------|------------------|------------------|------------------||
C|------2-----------|------2-----------|------2-----------|------2---3-2---2-||
G|----2---2---2---0-|----2---2---2---2-|----2---2---2---2-|----2---2-----2---||
c|--0-------3---2---|--0-------3---0---|--0-------3---0---|--0---------------||


Verse 1(4x) - acoustic
D|------------------|------------------|------------------|------------------||
A|------------------|------------------|------------------|------------------||
F|------------------|------------------|------------------|------------------||
C|------2-----------|------2-----------|------2-----------|------2---3-2---2-||
G|----2---2---2---0-|----2---2---2---2-|----2---2---2---2-|----2---2-----2---||
c|--0-------3---2---|--0-------3---0---|--0-------3---0---|--0---------------||
  Where is my hand   do you know??      I can't find         but I'm not lost.
  Your stoneface makes me feel so good, my pillow is made of little rocks. (...)
  

Bridge 1 (2x) - distort
D|------------------|------------------|------------------|------------------||
A|------------------|------------------|------------------|------------------||
F|------------------|------------------|------------------|------------------||
C|------------------|------------------|------------------|------------------||
G|--2-2-2-2-2-2-2-2-|--3-3-3-3-3-3-3-53|--2-2-2-2-2-2-2-2-|--0-0-0-0---0-0---||
c|--2-2-2-2-2-2-2-2-|--3-3-3-3-3-3-3-53|--2-2-2-2-2-2-2-2-|--0-0-0-0---0-0---||
  Here in graveyard and be waiting,     the time when we   pla-a-ay.
  With our hands   make each other dead, I never live with them aga-a-in.

Bridge 2 (2x) - distort
D|------------------|------------------|------------------|------------------||
A|------------------|------------------|------------------|------------------||
F|------------------|------------------|------------------|------------------||
C|------------------|------------------|------------------|------------------||
G|--2-2-2-2-2-222320|--2-2-2-2-2-222320|--2-2-2-2-2-222320|--5-5-5-3---5-3-2-||
c|--2-2-2-2-2-222320|--2-2-2-2-2-222320|--2-2-2-2-2-222320|--5-5-5-3---5-3-2-||


Verse 2(4x) - acoustic
D|------------------|------------------|------------------|------------------||
A|------------------|------------------|------------------|------------------||
F|------------------|------------------|------------------|------------------||
C|------2-----------|------2-----------|------2-----------|------2---3-2---2-||
G|----2---2---2---0-|----2---2---2---2-|----2---2---2---2-|----2---2-----2---||
c|--0-------3---2---|--0-------3---0---|--0-------3---0---|--0---------------||
  When you came in    our territory      I will catch you  And watch your bloody
 face in the shadows   not far away       from the safe     place you live. (...)
  
  
Bridge 1 (2x) - distort
D|------------------|------------------|------------------|------------------||
A|------------------|------------------|------------------|------------------||
F|------------------|------------------|------------------|------------------||
C|------------------|------------------|------------------|------------------||
G|--2-2-2-2-2-2-2-2-|--3-3-3-3-3-3-3-53|--2-2-2-2-2-2-2-2-|--0-0-0-0---0-0---||
c|--2-2-2-2-2-2-2-2-|--3-3-3-3-3-3-3-53|--2-2-2-2-2-2-2-2-|--0-0-0-0---0-0---||
  Here in graveyard and be waiting,     the time when we   pla-a-ay.
  With our hands   make each other dead, I never live with them aga-a-in.

Bridge 2 (2x) - distort
D|------------------|------------------|------------------|------------------||
A|------------------|------------------|------------------|------------------||
F|------------------|------------------|------------------|------------------||
C|------------------|------------------|------------------|------------------||
G|--2-2-2-2-2-222320|--2-2-2-2-2-222320|--2-2-2-2-2-222320|--5-5-5-3---5-3-2-||
c|--2-2-2-2-2-222320|--2-2-2-2-2-222320|--2-2-2-2-2-222320|--5-5-5-3---5-3-2-||
Добавлено: 26.06.2012
Вам также может быть интересно:
Другие материалы по этой песне:
  • Аккорды и текст

Страница создана 26.06.2012
http://primanota.ru/albi/for-my-crypt-chords.htm
Привет, Гость.
Предлагаем пройти революционный курс по гитаре.
Подарок от PrimaNota.Ru, забирай!