PrimaNota.ru - самый крупный в мире бесплатный архив песенных текстов, аккордов, табулатур и нот


Albert Lee - Back In The Usa - бас-таба, видео

Регистрация Запомнить меня
Войти через:  Facebook Google Twitter Vk Yandex Mail.ru

Albert Lee - Back In The Usa - бас-таба, видео

Печатать
Просмотров: 78
Back In The USA
Track by Albert Lee from his Album Tear It Up. Tab by bass50611 
Welcome to by bass tab that is more or less as original. Great
Cover version of this Chuck Berry classic.
Comments at bass254@btinternet.com 

Intro:
G|--------|---------------------------------------------
D|-GUITAR-|----------------------5----------------------
A|-START--|------3---3---3---3-----5---0-1-2-3---3--0-2-
E|--------|-8\-1---1-------3---3------3--------3---3----

Verse 1:
G|---------------------------------------------------------------
D|-----------------------------------------5---5-3-2-------------
A|-3-------3---3---3-------3---3---3---3-----5------5-3---3--0-2-
E|---3---1-------3---3---1---1-------3---3-------------3---3-----

Verse 2: (Repeat Verse 1)

Solo 1:
G|----------------------------------------------------------------
D|------------------------------------------5---------------------
A|-3-------3---3---3-1-0----3---3---3---3-----5--0-1-2-3---3--0-2-
E|---3---1-------3------3-1---1-------3---3-----3--------3---3----

Verse 3:
G|----------------------------------------------------------------
D|------------------------------------------5---5-3-2-------------
A|-3-------3---3---3-1-0----3---3---3---3-----5------5-3---3--0-2-
E|---3---1-------3------3-1---1-------3---3--------------3---3----

Solo 2:
   .     .      .
G|--------------------------------------------------------------------
D|---------------------------------------------5----------------------
A|-3------------3-----3-1-0----3---3---3---3-----5---0-1-2-3---3--0-2-
E|-------1-----------------3-1---1-------3---3------3--------3---3----

Verse 4: (Repeat Solo 1)

Verse 5: (Repeat Verse 1)

Verse 6: (Repeat Solo 1)

Solo 3:                                         Repeat To Fade/End)
G|----------------------------------------------------------------
D|------------------------------------------5---------------------
A|-3-------3---3---3-1-0----3---3---3---3-----5--0-1-2-3---3--0-2-
E|---3---1-------3------3-1---1-------3---3-----3--------3---3----

Добавлено: 14.05.2016
Вам также может быть интересно:
Другие материалы по этой песне:
  • Аккорды и текст

Страница создана 14.05.2016
http://primanota.ru/albert-lee/back-in-usa-chords.htm
Привет, Гость.
Предлагаем пройти революционный курс по гитаре.
Подарок от PrimaNota.Ru, забирай!