PrimaNota.ru - самый крупный в мире бесплатный архив песенных текстов, аккордов, табулатур и нот


Albert King - Blues At Sunrise - таба, видео

Регистрация Запомнить меня
Войти через:  Facebook Google Twitter Vk Yandex Mail.ru

Albert King - Blues At Sunrise - таба, видео

Печатать
Просмотров: 282
Авторы музыки: Albert King
Авторы текста: Albert King
/ - slide up  \ - -slide bown b- bend r - release

----------------------------------------------------------------------------|
----------/14-14\------------b12-14-14-14-14-14\-b10-b10--12-10-------------|
----11-11--------------10/12------------------------------------11\---------|
-11-------------------------------------------------------------------------|
----------------------------------------------------------------------------|
----------------------------------------------------------------------------|


----------------------------------------------------------------------------|
--------b10-b10-------------------------------------------------------------|
-----11----------------9-11------------------------/11-11-11\---------------|
--11---------------/11----------9----9--------------------------------------|
----------------------------9\----12---12-9\--------------------------------|
----------------------------------------------------------------------------|


----------------------------------------------------------------------------|
-------/14-14\--------10----------------------------------------------------|
-11-11---------/11-11----11\---11-11-11-/13-13\-13-b11-10-------------------|
----------------------------------------------------------11-11\------------|
-------------------------------------------------------------11\------------|
----------------------------------------------------------------------------|


----------------------------------------------------------------------------|
--------------------10-b12-b12r-10-----b12r-10----b12r-10-------------------|
------/11-11-----11----------------11\--------------------11----------------|
-9---------------------------------11\---------11---------------------------|
---12-----------------------------------------------------------------------|
----------------------------------------------------------------------------|


----------------------------------------------------------------------------|
----------------------------------------------------------------------------|
-----9---------9------------------------------------------------------------|
-/11---11-9-11---11\---7-----b7r-b7r-/4-3-2--------------4------------------|
-------------------------9------------------4-3-2--0-2-4--------------------|
-----------------------------------------------------------2----------------|


----------------------------------------------------------------------------|
----------------------------------------------/14-14\-10-------10-----------|
-----------2-------4-2-b2r-------------/11-11------------11-11----11\-------|
-------4-----4---3---------4------------------------------------------------|
-2-3-4---------4--------------4-3-2-----------------------------------------|
----------------------------------------------------------------------------|


----------------------------------------------------------------------------|
-------------------------------------------------------------10-------------|
-11-11-11-/13-13--13-b11r-10----------------------/11-11--11----11\---------|
-----------------------------11-9-------------------------------------------|
----------------------------------11-8--------------------------------------|
---------------------------------------9-7-4-4------------------------------|


----------------------------------------------------------------------------|
---------------------7------------------------------------------------------|
-----11----9----b9-----6-b4-2---2-------------------------------------------|
-/11----11---11---------------4---4-4\--------------------------------------|
--------------------------------------------7-------------------------------|
-----------------------------------------/9---9-7-9-------------------------|


-14----b12---14----------------14---14\--14-17-19-b19--b19-17-14-14-14\-----|
----14----------14---------------14-----------------------------------------|
-------------------16-14----------------------------------------------------|
-------------------------16\------------------------------------------------|
----------------------------------------------------------------------------|
----------------------------------------------------------------------------|


-14-14-/16-16\--------------------------------/14-14-14\-14-17-14-b19-------|
----------------18----------------------------------------------------------|
-------------------18-16----------------------------------------------------|
-------------------------18-15----------------------------------------------|
-------------------------------16-14----------------------------------------|
-------------------------------------16-13-9--------------------------------|


-b19-17----b19-17----b19-17-------------------------------------------------|
--------19--------19--------19-----17----------17---------------------------|
-------------------------------/18----18-16-18----18\-----------------------|
----------------------------------------------------------------------------|
----------------------------------------------------------------------------|
----------------------------------------------------------------------------|
Добавлено: 29.07.2012
Другие материалы по этой песне:
  • Аккорды и текст

Страница создана 29.07.2012
http://primanota.ru/albert-king/blues-at-sunrise-chords.htm
Привет, Гость.
Предлагаем пройти революционный курс по гитаре.
Подарок от PrimaNota.Ru, забирай!