PrimaNota.ru - самый крупный в мире бесплатный архив песенных текстов, аккордов, табулатур и нот


Albert King - Ask Me No Questions - бас-таба, видео

Регистрация Запомнить меня
Войти через:  Facebook Google Twitter Vk Yandex Mail.ru

Albert King - Ask Me No Questions - бас-таба, видео

Печатать
Просмотров: 217
Уроки эстрадного вокала в Санкт-Петербурге
Авторы музыки: B.B. King
Авторы текста: B.B. King
                        ASK ME NO QUESTIONS (Bassline)
                 As recorded by Albert King / Stevie Ray Vaughan
                        (From the 1983 Album IN SESSION)

Music by B.B. King
Transcribed by Bruce Tyroler

    Bbm                               Eb               Fm
   4/4
    Gtr I
    E E E E E E Q    E E E E E E Q    E E E E E E Q    E E E E E E Q
||-----------------|----------------|---8-6-5--------|----------------|
||o---8-6-5--------|---8-6-5--------|---------8------|---4-2-1--------|
||o---------8------|---------8------|-6---------6----|---------4------|
||--6---------6----|-6---------6----|----------------|-2---------2----|


  Bbm               Cm              Bbm             Fm
  E E E E E E E E   Q  E E E Q  E   Q E E  E Q  E   E E E E E E E E
|-----------------|---------------|---------------|-------------------||
|-----------------|--------3-3----|-----0--1-1----|------------------o||
|-1-1-3-4-5---5-4-|-3--3-3------3-|-1-3-----------|-1----------------o||
|-----------3-----|---------------|---------------|---1-1-1-1-1-1-1---||


  Eb                                 Bbm
  E E E E E Q.      E E E E E Q.     E E E E E Q.     E E E E E Q.
|---8---8---------|---8---8--------|----------------|----------------|
|-----------------|----------------|---8---8--------|---8---8--------|
|-6---6---6-------|-6---6---6------|----------------|----------------|
|-----------------|----------------|-6---6---6------|-6---6---6------|


  Cm                                    Fm
  E  E E  E E   Q.   E  E E  E E   Q.   E E E E E E E E   Q.  E E E E E
|------------------|------------------|-----------------|-----------------|
|---10---10--------|---10---10--------|-----------------|-----------------|
|------------------|------------------|-8-8---8---8-8-8-|-----8-8-8-8-8---|
|-8----8----8------|-8----8----8------|-----------------|-----------------|
Добавлено: 13.03.2012
Другие материалы по этой песне:
  • Аккорды и текст

Страница создана 13.03.2012
http://primanota.ru/albert-king/ask-me-no-questions-chords.htm
Привет, Гость.
Предлагаем пройти революционный курс по гитаре.
Подарок от PrimaNota.Ru, забирай!