PrimaNota.ru - самый крупный в мире бесплатный архив песенных текстов, аккордов, табулатур и нот


Albert Hammond Jr - Victory At Monterey - таба, бас-таба, видео

Регистрация Запомнить меня
Войти через:  Facebook Google Twitter Vk Yandex Mail.ru

Albert Hammond Jr - Victory At Monterey - таба, бас-таба, видео

Печатать
Просмотров: 159
Уроки эстрадного вокала в Санкт-Петербурге
Band/artist: Albert Hammond, Jr.
Song: Victory At Monterey
Album: ¿Como Te Llama?
Tabbed by: CrimsonJ
Tuning: Standard
The intro is just crazy guitar effects, the guitars kick in around 1:12.


Main Riff

Guitar 1
e|----------------------------------------|
B|----------------------------------------|
G|----------------------------------------|
D|----------------------------------------|
A|--------------------0--0--0--3--3--3----|    
E|--0--0--0--3--3--3----------------------|   \  
                                               \  
Guitar 2                                        \ 
e|----------------------------(8)-(7)-(5)--|     \ x3
B|-----------------------------8---7---5---|     /
G|--8h9p8h9p8h9p8h9p8~---------9---7---5---|    /
D|-----------------------------------------|   /
A|-----------------------------------------|
E|-----------------------------------------|

Then the fourth time, it's:

      "That's  sad ,  victory  at Monterey!"
 Guitar 1
e|-------------------------------------|
B|-------------------------------------|
G|-------------------------------------|
D|-------------------------------------|
A|--------------------0--0--0--3--3----|    
E|--0--0--0--3--3--3-------------------|

 Guitar 2
e|----------------------------(8)-(7)-------------|
B|-----------------------------8---7---------5~~--|
G|--8h9p8h9p8h9p8h9p8~---------9---7---------5~~--|
D|-------------------------------------------3~~--|   Play Chord with distortion
A|-------------------------------------------3~~--|
E|------------------------------------------------|


Verse
 
 Guitar 1                     
e|--------------------|--------------------------------------|
B|--------------------|--------------------------------------|
G|----------3---------|--3---2---3---5---2---5---2---5--(x4)-| 
D|--3---2-------3---2-|--------------------------------------|
A|--------------------|--------------------------------------|
E|--------------------|--------------------------------------|

Repeat the main riff after that, then the verse. Pretty easy song, you just 
need some pedals (maybe an EHX Memory Man) and mess around
with them to get the same AHJ gets during the intro. 
Feel free to comment
Добавлено: 28.07.2015
Другие материалы по этой песне:
  • Аккорды и текст

Страница создана 24.07.2012
http://primanota.ru/albert-hammond-jr/victory-at-monterey-chords.htm
Привет, Гость.
Предлагаем пройти революционный курс по гитаре.
Подарок от PrimaNota.Ru, забирай!