PrimaNota.ru - самый крупный в мире бесплатный архив песенных текстов, аккордов, табулатур и нот


Albert Hammond Jr - Side Boob - таба, видео

Регистрация Запомнить меня
Войти через:  Facebook Google Twitter Vk Yandex Mail.ru

Albert Hammond Jr - Side Boob - таба, видео

Печатать
Просмотров: 45
Авторы: Albert Hammond, Jr.

*Guitar 1:

e|---------------------------------------------------------------------------|
B|---------------------------------------------------------------------------|
G|---------------------------------------------------------------------------|
D|---------------------------------------------------------------------------|
A|---5-7-5-7-5-7-5-7-5-5-5-5-5-5-5-5-2-2-2-2-2-2-2-2-2-2-2-2-2-2-2-2---------|
E|---------------------------------------------------------------------------|

e|---------------------------------------------------------------------------|
B|---------------------------------------------------------------------------|
G|---------------------------------------------------------------------------|
D|---------------------------------------------------------------------------|
A|---3-5-3-5-3-5-3-5-3-3-3-3-3-3-3-3-0-2-0-2-0-2-0-2-0-0-0-0-0-0-0-0---------|
E|---------------------------------------------------------------------------|*

*These two play throughout the rest of the solo

Guitar 2:

e|------------------------------10-10-10-108-88-77---------------------------|
B|---10-10-10-1010-1010-10-10------------------------------------------------|
G|---------------------------------------------------------------------------|
D|---------------------------------------------------------------------------|
A|---------------------------------------------------------------------------|
E|---------------------------------------------------------------------------|

e|--------------------8-8-8-87-77--------------------------------------------|
B|---8-8-8-88-88-8-8--------------88-----------------------------------------|
G|---------------------------------------------------------------------------|
D|---------------------------------------------------------------------------|
A|---------------------------------------------------------------------------|
E|---------------------------------------------------------------------------|

e|---17-17-17-1717-1717-17-17s22-22-22-2220-2020-19-19-----------------------|
B|---------------------------------------------------------------------------|
G|---------------------------------------------------------------------------|
D|---------------------------------------------------------------------------|
A|---------------------------------------------------------------------------|
E|---------------------------------------------------------------------------|

e|---15-15--15-1515-1515-15-15-20-20-20-2019-1919-15-15----------------------|
B|---------------------------------------------------------------------------|
G|---------------------------------------------------------------------------|
D|---------------------------------------------------------------------------|
A|---------------------------------------------------------------------------|
E|---------------------------------------------------------------------------|

Not sure about the outro but I think it's something along these lines:

e|---------------------------------------------------------------------------|
B|--1313-1313-1313-1313-10-12------1313-1313-1313-1313-17-15-----------------|
G|--1212-1212-1212-1212-9--11--x3--1212-1212-1212-1212-16-14-x1--------------|
D|--1010-1010-1010-1010-7--9-------1010-1010-1010-1010-14-12-----------------| x3
A|---------------------------------------------------------------------------|
E|---------------------------------------------------------------------------|

Then play this:
e|---------------------------------------------------------------------------|
B|--1313-1313-1313-1313-10-12----1313-1313-1313-1313-17-15-------------------|
G|--1212-1212-1212-1212-9--11----1212-1212-1212-1212-16-14-------------------|
D|--1010-1010-1010-1010-7--9-----1010-1010-1010-1010-14-12-------------------| 
A|---------------------------------------------------------------------------|
E|---------------------------------------------------------------------------|

Finishing with this:
e|---------------------------------------------------------------------------|
B|--1313-1313-1313-1313-10-12----1313-1313-1313-1313-17-15-13~---------------|
G|--1212-1212-1212-1212-9--11----1212-1212-1212-1212-16-14-12~---------------|
D|--1010-1010-1010-1010-7--9-----1010-1010-1010-1010-14-12-10~---------------| 
A|---------------------------------------------------------------------------|
E|---------------------------------------------------------------------------|



If anyone wants to add this to a completed tab, feel free.
Добавлено: 13.11.2015
Другие материалы по этой песне:
  • Аккорды и текст

Страница создана 13.11.2015
http://primanota.ru/albert-hammond-jr/side-boob-chords.htm
Привет, Гость.
Предлагаем пройти революционный курс по гитаре.
Подарок от PrimaNota.Ru, забирай!