PrimaNota.ru - самый крупный в мире бесплатный архив песенных текстов, аккордов, табулатур и нот


Albert Hammond Jr - Holiday - текст песни, таба, видео

Регистрация Запомнить меня
Войти через:  Facebook Google Twitter Vk Yandex Mail.ru

Albert Hammond Jr - Holiday - текст песни, таба, видео

Печатать
Просмотров: 101
artist: albert hammond jr.
album: yours to keep
song: holliday
 
______________________________part 1_________________________________________


guitar 1:
e|---5----------------------------------5---------- 
b|---5----------------------------------5----------
g|---6----------------------------------6----------
d|---7----------------------------------7----------
a|---7----------------------------------7----------
E|---5----------------------------------5----------

e|---2--------2----------------5--------5----------|
b|---3--------3----------------5--------5----------|
g|---4--------4----------------6--------6----------|
d|---4--------4----------------7--------7----------| 
a|---2--------2----------------7--------7----------|
E|---2--------2----------------5--------5----------| 

______________________________part 2 ________________________________________


guitar 2(slight disortion):
e|------------------
b|------------------
g|------------------
d|---7--------------
a|---7--------------
E|---5-------------- 

guitar 1:
e|---5----------------------------------5---------- 
b|---5----------------------------------5----------
g|---6----------------------------------6----------
d|---7----------------------------------7----------
a|---7----------------------------------7----------
E|---5----------------------------------5----------

e|---2--------2----------------5--------5----------|
b|---3--------3----------------5--------5----------|
g|---4--------4----------------6--------6----------|
d|---4--------4----------------7--------7----------| 
a|---2--------2----------------7--------7----------|
E|---2--------2----------------5--------5----------|

____________________________part 3(intro)(x2):_______________________________


guitar 1:
e|---x-x--x--x--x-x-x--x-x-x-x-----------------|
b|---x-x--x--x--x-x-x--x-x-x-x-----------------|
g|---6-6--6--6--6-6-6--6-6-6-6-----------------| x4
d|---7-7--7--7--7-7-7--7-7-7-7-----------------|
a|---7-7--7--7--7-7-7--7-7-7-7-----------------|
E|---5-5--5--5--5-5-5--5-5-5-5-----------------|

guitar 1:
e|---5-5--5--5--5-5-5--5-5-5-5-----------------|
b|---5-5--5--5--5-5-5--5-5-5-5-----------------|
g|---6-6--6--6--6-6-6--6-6-6-6-----------------|
d|---7-7--7--7--7-7-7--7-7-7-7-----------------| x2
a|---7-7--7--7--7-7-7--7-7-7-7-----------------|
E|---5-5--5--5--5-5-5--5-5-5-5-----------------|

guitar 2:
e|--------7--5--5h7p5---------------------|
b|-----5---------------6--7---------------|
g|--6-------------------------------------| x2
d|----------------------------------------|
a|----------------------------------------|
E|----------------------------------------|

guitar 1:
e|---7-7--7--7--7-7-7--7-7-7-7-----------------|
b|---7-7--7--7--7-7-7--7-7-7-7-----------------|
g|---7-7--7--7--7-7-7--7-7-7-7-----------------| 
d|---9-9--9--9--9-9-9--9-9-9-9-----------------|
a|---9-9--9--9--9-9-9--9-9-9-9-----------------|
E|---7-7--7--7--7-7-7--7-7-7-7-----------------|

guitar 2:
e|--------9--7--7h9p7---------------------|
b|-----7---------------9--10--------------|
g|--7-------------------------------------|
d|----------------------------------------|
a|----------------------------------------|
E|----------------------------------------|

guitar 1:
e|---9--9---9---9---9--9--9--9--9--9--9-----------------|
b|---9--9---9---9---9--9--9--9--9--9--9-----------------|
g|---9--9---9---9---9--9--9--9--9--9--9-----------------| 
d|---11-11--11--11--11-11-11-11-11-11-11----------------|
a|---11-11--11--11--11-11-11-11-11-11-11----------------|
E|---9--9---9---9---9--9--9--9--9--9--9-----------------|

guitar 2:
e|--------9--7--9b(10)-9b(10)--9p7--------|
b|-----7----------------------------------|
g|--7-------------------------------------|
d|----------------------------------------|
a|----------------------------------------|
E|----------------------------------------|

__________________________part 4(vers)(x2)___________________________________


guitar 1:
e|---5-5--5--5--5-5-5--5-5-5-5-----------------|
b|---5-5--5--5--5-5-5--5-5-5-5-----------------|
g|---6-6--6--6--6-6-6--6-6-6-6-----------------| 
d|---7-7--7--7--7-7-7--7-7-7-7-----------------| x4
a|---7-7--7--7--7-7-7--7-7-7-7-----------------|
E|---5-5--5--5--5-5-5--5-5-5-5-----------------|


e|---2-2--2--2--2-2-2--2-2-2-2-----------------|
b|---3-3--3--3--3-3-3--3-3-3-3-----------------|
g|---4-4--4--4--4-4-4--4-4-4-4-----------------| 
d|---4-4--4--4--4-4-4--4-4-4-4-----------------| x2
a|---2-2--2--2--2-2-2--2-2-2-2-----------------|
E|---2-2--2--2--2-2-2--2-2-2-2-----------------|


e|---5-5--5--5--5-5-5--5-5-5-5-----------------|
b|---5-5--5--5--5-5-5--5-5-5-5-----------------|
g|---6-6--6--6--6-6-6--6-6-6-6-----------------| 
d|---7-7--7--7--7-7-7--7-7-7-7-----------------| x2
a|---7-7--7--7--7-7-7--7-7-7-7-----------------|
E|---5-5--5--5--5-5-5--5-5-5-5-----------------|

_____________________________part 5(solo)____________________________________


guitar 1:
e|---5-5--5--5--5-5-5--5-5-5-5-----------------|
b|---5-5--5--5--5-5-5--5-5-5-5-----------------|
g|---6-6--6--6--6-6-6--6-6-6-6-----------------| 
d|---7-7--7--7--7-7-7--7-7-7-7-----------------| x4
a|---7-7--7--7--7-7-7--7-7-7-7-----------------|
E|---5-5--5--5--5-5-5--5-5-5-5-----------------|

guitar 2:
e|-------/9-----------/9---\7---\5---------/9--------------/9---\7---\5---
b|--5----/9------5----/9---\7---\5----5----/9---------5----/9---\7---\5---
g|--6------------6--------------------6---------------6-------------------
d|-(7)----------(7)------------------(7)-------------(7)------------------
a|------------------------------------------------------------------------
E|------------------------------------------------------------------------

guitar 1:
e|---2-2--2--2--2-2-2--2-2-2-2-----------------|
b|---3-3--3--3--3-3-3--3-3-3-3-----------------|
g|---4-4--4--4--4-4-4--4-4-4-4-----------------| 
d|---4-4--4--4--4-4-4--4-4-4-4-----------------| x2
a|---2-2--2--2--2-2-2--2-2-2-2-----------------|
E|---2-2--2--2--2-2-2--2-2-2-2-----------------|

guitar 2:
e|--7---\5---------7--4--5--/7----------------------
b|--7---\5---------7--5--5--/7----------------------
d|--------------------------------------------------
g|--------------------------------------------------
a|--------------------------------------------------
E|--------------------------------------------------

guitar 1:
e|---5-5--5--5--5-5-5--5-5-5-5-----------------|
b|---5-5--5--5--5-5-5--5-5-5-5-----------------|
g|---6-6--6--6--6-6-6--6-6-6-6-----------------| 
d|---7-7--7--7--7-7-7--7-7-7-7-----------------| x2
a|---7-7--7--7--7-7-7--7-7-7-7-----------------|
E|---5-5--5--5--5-5-5--5-5-5-5-----------------|

guitar 2:
e|-(5)---/9---------/9---\7---\5--------------------|
b|--5----/9----5----/9---\7---\5--------------------|
g|--6----------6------------------------------------|
d|-(7)--------(7)-----------------------------------|
a|--------------------------------------------------|
E|--------------------------------------------------|

____________________________________________________________________________

>part 2
>part 3
____________________________________________________________________________
outro:

e|---5------------5-5--------------------
b|---5----9--7----5-5--------------------
g|---6----9--7----6-6--------------------
d|---7----9--7----7-7--------------------
a|---7----7--5----7-7--------------------
E|---5------------5-5--------------------

e|------------5-5--------------5-5--------|
b|---9--7-----5-5-----9--7-----5-5--------|
g|---9--7-----6-6-----9--7-----6-6--------|
d|---9--7-----7-7-----9--7-----7-7--------|
a|---7--5-----7-7-----7--5-----7-7--------|
E|------------5-5--------------5-5--------|
thats it my first tab! pretty easy to play
strokes rocks!


Tabbed by: Quyen Uy Vu

Добавлено: 12.04.2012
Другие материалы по этой песне:

Страница создана 12.04.2012
http://primanota.ru/albert-hammond-jr/holiday-chords.htm
Привет, Гость.
Предлагаем пройти революционный курс по гитаре.
Подарок от PrimaNota.Ru, забирай!