PrimaNota.ru - самый крупный в мире бесплатный архив песенных текстов, аккордов, табулатур и нот


Albert Hammond Jr - Gfc - таба, бас-таба, видео

Регистрация Запомнить меня
Войти через:  Facebook Google Twitter Vk Yandex Mail.ru

Albert Hammond Jr - Gfc - таба, бас-таба, видео

Печатать
Просмотров: 287
Уроки эстрадного вокала в Санкт-Петербурге
                                                 GfC – Albert Hammond Jr.
----------------------------------------------------------------------
Tabbed by: Glenn Fields
Email:  fieldsofglenn@yahoo.com

Tuning: Standard

Intro/Verse Riff:

       Em                        Em7
e|-----------------7-------------------------7--------------------|
B|-----------8------------8------------8-------------8------------|
G|---7-h-9------9------9-----9-----7------7------7------7---------|
D|----------------------------------------------------------------|
A|----------------------------------------------------------------|
E|----------------------------------------------------------------|

         C                       Fmaj7
e|-------------------8------------------------8-----------------|
B|-------------8------------8----------10------------10---------|
G|---7--h--9------9------9-----9----9------9-----9-------9------|
D|--------------------------------------------------------------|
A|--------------------------------------------------------------|
E|--------------------------------------------------------------|

Chords:
       Em         Em7       C      Fmaj7
e|-----7----------7---------8---------8---------------|
B|-----8----------8---------8--------10---------------|
G|-----9----------7---------9---------9---------------|
D|-----9----------9--------10--------10---------------|
A|-----7----------7--------10---------8---------------|
E|-----7----------7---------8---------8---------------|


Lyrics:
Inside me there's a sad machine, wants to stop movin' 
I disagree for the things you do 
You should stop doin' oh! 

(On the last time of the verse where he says ‘Oh' you strum the last chord thrice.)

Bridge: strum same chords find the rhythm it's pretty simple to follow.

Em7        C
All the whi-----le... 
All the whi-----le... 

I want my frustrations 
To know that you are all right 
Bout' what I was doin' 
You played a fool 

Hold my head it's about to fall, (from) all that is happenin' 
Get what you would've changed in me 
If you had it comin' oh! 

Bridge:

Em7        C
All the whi-----le... 
All the whi-----le... 

I want my frustrations 
To know that you are all right 
Bout' what I was doin' 
You played a fool 

Solo:
For the solo if you just play around on the B and e strings around the 12th fret in the 
E minor pentatonic you'll find some riffs that fit and sound cool.

(Repeat Chorus after solo)
End on Verse Riff.

Добавлено: 15.05.2012
Другие материалы по этой песне:

Страница создана 25.02.2012
http://primanota.ru/albert-hammond-jr/gfc-chords.htm
Привет, Гость.
Предлагаем пройти революционный курс по гитаре.
Подарок от PrimaNota.Ru, забирай!