PrimaNota.ru - самый крупный в мире бесплатный архив песенных текстов, аккордов, табулатур и нот


Albert Hammond Jr - Cooker Ship - таба, видео

Регистрация Запомнить меня
Войти через:  Facebook Google Twitter Vk Yandex Mail.ru

Albert Hammond Jr - Cooker Ship - таба, видео

Печатать
Просмотров: 66
-------------------------------------------------------------------------------
                             COOKER SHIP - Albert Hammond Jr.
-------------------------------------------------------------------------------
Tabbed by: me
E-mail:

Tuning: EADGBE

Intro & verse

Guitar 1
e|---------------------------------------------------------------------------|
B|---2---3---2---2---3---2---2---3---2---2---3---2---------------------------|
G|-2---2---2---2---2---2---2---2---2---2---2---2-----------------------------| x4
D|---------------------------------------------------------------------------|
A|---------------------------------------------------------------------------|
E|---------------------------------------------------------------------------|
Guitar 2
e|---------------------------------------------------------------------------|
B|---------------------------------------------------------------------------|
G|---------------------------------------------------------------------------| x4
D|----11----12----11----11----12----11----11----12----11----11----12----11---|
A|-12----12----12----12----12----12----12----12----12----12----12----12------|
E|---------------------------------------------------------------------------|

Chorus & solo I

Guitar 1
e|-7-7-7-7-7-7-7-7-7-7-7-7-7-7-7-7-7-7-7-7-7-7-7-7-7-7-7-7-7-7-7-7-7-7-7-7-9-|
B|-8-8-8-8-8-8-8-8-8-8-8-8-8-8-8-8-8-8-8-8-8-8-8-8-7-7-7-7-7-7-7-7-7-7-7-7-7-|
G|-9-9-9-9-9-9-9-9-9-9-9-9-9-9-9-9-9-9-9-9-9-9-9-9-7-7-7-7-7-7-7-7-7-7-7-7-7-|
D|-9-9-9-9-9-9-9-9-9-9-9-9-9-9-9-9-9-9-9-9-9-9-9-9---------------------------|
A|---------------------------------------------------------------------------|
E|---------------------------------------------------------------------------|

e|9-9-9-9-9-10-10-10-9-9-9-7-7-7-7-7-7-7-7-7-7-7-7-7-7-7-7-7-7-9-9-9-7-7-7-7-|
B|7-7-7-7-7-7--7--7--7-7-7-8-8-8-8-8-8-8-8-8-8-8-8-8-8-8-8-8-8-8-8-8-8-8-8-7-|
G|7-7-7-7-7-7--7--7--7-7-7-9-9-9-9-9-9-9-9-9-9-9-9-9-9-9-9-9-9-9-9-9-9-9-9-7-|
D|-------------------------9-9-9-9-9-9-9-9-9-9-9-9-9-9-9-9-9-9-7-7-7-7-7-7---|
A|---------------------------------------------------------------------------|
E|---------------------------------------------------------------------------|
                                                                               .
e|-7-7-7-7-7-7-7-7-7-7-7-9-9-9-9-9-9-10-10-10-9-9-9--------------------------| .
B|-7-7-7-7-7-7-7-7-7-7-7-7-7-7-7-7-7-7--7--7--7-7-7--------------------------| .
G|-7-7-7-7-7-7-7-7-7-7-7-7-7-7-7-7-7-7--7--7--7-7-7--------------------------| x2
D|---------------------------------------------------------------------------|
A|---------------------------------------------------------------------------|
E|---------------------------------------------------------------------------|

Guitar 2

e|---------------------------------------------------------------------------|
B|---------------------------------------------------------------------------|
G|---------------------------------------------------------------------------|
D|----7----9----7----7----9----7----7----9----7----7----9----7---------------|
A|-10---10---10---10---10---10---10---10---10---10---10---10---9-10-9-12-9-10|
E|---------------------------------------------------------------------------|

e|---------------------------------------------------------------------------|
B|---------------------------------------------------------------------------|
G|---------------------------------------------------------------------------|
D|--------------------------------------------------7----9----7----7----9----|
A|-9-10-9-12-9-10-9-10-9-12-9-10-10-9----9-------10---10---10---10---10---10-|
E|------------------------------------12---12-10-----------------------------|

e|---------------------------------------------------------------------------|
B|---------------------------------------------------------------------------|
G|---------------------------------------------------------------------------|
D|7----7----9----7----7----9----7--------------------------------------------|
A|--10---10---10---10---10---10---9-10-9-12-9-10-9-10-9-12-9-10-12-10-9-12-10|
E|---------------------------------------------------------------------------|

e|---------------------------------------------------------------------------|
B|---------------------------------------------------------------------------|
G|---------------------------------------------------------------------------|
D|---------------------------------------------------------------------------|
A|-9-12-10-9-12-10-9---------------------------------------------------------|
E|---------------------------------------------------------------------------|

(solo)
e|---------------------------------------------------------------------------|
B|----------------/10--8-7-------------7---5--7-5----------------------------|
G|-6---7------6-------------6---7--------------------------------------------| x2
D|---------------------------------------------------------------------------|
A|---------------------------------------------------------------------------|
E|---------------------------------------------------------------------------|

Bridge

Guitar 1 (muted)
e|---------------------------------------------------------------------------|
B|---------------------------------------------------------------------------|
G|---------------------------------------------------------------------------|
D|-12-12-12-12-12-12-12-12-12-12-12-12-12-12-12-12-12-12-12-12-12-12-12-12-12| ...
A|---------------------------------------------------------------------------|
E|---------------------------------------------------------------------------|

Guitar 2
e|----------14----------------14----------------14----------------14---------|
B|----17----------17----17----------17----15----------15----14----------14---|
G|-16----16----16----16----16----16----16----16----16----16----16----16------| x2
D|---------------------------------------------------------------------------|
A|---------------------------------------------------------------------------|
E|---------------------------------------------------------------------------|

e|----------------------------------------------------------------14---------|
B|----15----15----15----15----15----15----15----15----15----14----------14---|
G|-16----16----16----16----16----16----16----16----16----14----14----14------| x2
D|---------------------------------------------------------------------------|
A|---------------------------------------------------------------------------|
E|---------------------------------------------------------------------------|

Guitar 1
e|---------------------------------------------------------------------------|
B|---------------------------------------------------------------------------|
G|-7-----------------------------------------------------------------------6-|
D|---------------------------------------------------------------------------|
A|---------------------------------------------------------------------------|
E|---------------------------------------------------------------------------|
  Self inflicted nightmare                  Lately I'm just not   quite   my-

e|---------------------------------------------------------------------------|
B|---------------------------------------------------------------------------|
G|-7-----------------------------------16--14--------------------------------|
D|---------------------------------------------------------------------------|
A|---------------------------------------------------------------------------|
E|---------------------------------------------------------------------------|
  Self inflicted nightmare                  Lately I'm just not.

...

Solo II

e|---------------------------------------------------------------------------|
B|---------------------------------------------------------------------------|
G|---------------------------------------------------------------------------|
D|----12-14-12-16-12-14-12-14-12-16-12-14-14-16-14-17-14-16-14-16-14-17-14-16|
A|---------------------------------------------------------------------------|
E|---------------------------------------------------------------------------|

e|---------------------------------------------------------------------------|
B|---------------------------------------------------------------------------|
G|-------------------------------------14-16-14-18-14-16-16-18-16-19-16-18-18|
D|-16-17-16-19-16-17-17-19-17-21-17-19---------------------------------------|
A|---------------------------------------------------------------------------|
E|---------------------------------------------------------------------------|

e|----------------------------------------------------------------------14-15|
B|----------------15-17-15-19-15-17-17-19-17-20-17-19-15-17-15-19-15-17------|
G|-19-18-21-18-19------------------------------------------------------------|
D|---------------------------------------------------------------------------|
A|---------------------------------------------------------------------------|
E|---------------------------------------------------------------------------|

e|-14-17-14-15-15-17-15-19-15-17-17-19-17-21-17-19-19/21--19-----------------|
B|---------------------------------------------------------------------------|
G|---------------------------------------------------------------------------|
D|---------------------------------------------------------------------------|
A|---------------------------------------------------------------------------|
E|---------------------------------------------------------------------------|


************************************

| /   slide up
| \   slide down
| h   hammer-on
| p   pull-off
| ~   vibrato
| +   harmonic
| x   Mute note
| b   Bend
| pb  Pre-bend
| br  Bend release
| pbr Pre-bend release
| brb Bend release bend

************************************
Добавлено: 02.03.2016
Другие материалы по этой песне:
  • Аккорды и текст

Страница создана 02.03.2016
http://primanota.ru/albert-hammond-jr/cooker-ship-chords.htm
Привет, Гость.
Предлагаем пройти революционный курс по гитаре.
Подарок от PrimaNota.Ru, забирай!