PrimaNota.ru - самый крупный в мире бесплатный архив песенных текстов, аккордов, табулатур и нот


Albert Hammond Jr - Caught By My Shadow - таба, видео

Регистрация Запомнить меня
Войти через:  Facebook Google Twitter Vk Yandex Mail.ru

Albert Hammond Jr - Caught By My Shadow - таба, видео

Печатать
Просмотров: 122
Авторы: Albert Hammond, Jr.

-------------------------------------------------------------------------------
                             Caught By My Shadow - Albert Hammond Jr
-------------------------------------------------------------------------------
Tabbed by: StevieRiegs19
E-mail:

Tuning: Standard

e|---------------------------------------------------------------------------|
B|---------------------------------------------------------------------------|
G|---------------------------------------------------------------------------|
D|----------------------------2-1---2-----2-4/5-4-2--------------------------|
A|---3---3-2--2---------3-2-3-----2-----2------------------------------------|
E|--------------0-0-0--------------------------------------------------------|

e|---------------------------------------------------------------------------|
B|---------------------------------------------------------------------------|
G|---------------------------------------------------------------------------|
D|----------------------------2-1---2-----2-4/5-4-2--------------------------|
A|---3---3-2--2---2/0----3-2-3----2-----2------------------------------------|
E|--------------0----0-------------------------------------------------------|




************************************

| /   slide up
| \   slide down
| h   hammer-on
| p   pull-off
| ~   vibrato
| +   harmonic
| x   Mute note
| b   Bend
| pb  Pre-bend
| br  Bend release
| pbr Pre-bend release
| brb Bend release bend

************************************
Добавлено: 02.03.2016
Вам также может быть интересно:
Другие материалы по этой песне:
  • Аккорды и текст

Страница создана 02.03.2016
http://primanota.ru/albert-hammond-jr/caught-by-my-shadow-chords.htm
Привет, Гость.
Предлагаем пройти революционный курс по гитаре.
Подарок от PrimaNota.Ru, забирай!