PrimaNota.ru - самый крупный в мире бесплатный архив песенных текстов, аккордов, табулатур и нот


Albert Hammond Jr - Back To The 101 - аккорды и текст, таба, видео

Регистрация Запомнить меня
Войти через:  Facebook Google Twitter Vk Yandex Mail.ru

Albert Hammond Jr - Back To The 101 - аккорды и текст, таба, видео

Печатать
Просмотров: 155
Back To The 101
Albert Hammond Jr
BACK TO THE 101, Al bert Hammond JR

Intro (2ND GUITAR)
E	C#	B	A
E	A	B

Part 1(1ST GUITAR)
e|-------------------------------------------|
b|-7-9-7-9--7-9-7-9--7-9-7-9-10-9--10-9-7----|
g|----------------------------------------9--|
d|-------------------------------------------|
a|-------------------------------------------|
E|-------------------------------------------|


Part 2:
e|-7---7-----7-----4-4h5p4-2h4p2-----|
b|---5---5-----5---------------------|
g|-----------------------------------|
d|-----------------------------------|
a|-----------------------------------|
E|-----------------------------------|

A		B		A
Though it took me by surprise
	  B		A
One by one I realized
	      B			A	B  B
There was something I could do

E
I lost my way.
C#
That's what she said
B		A
Back to the 101
E
If we don't know
C#
Somewhere to go
B		A
Back to the 101
E	A	B
E	A	B

A	B		A	
I never said to feel relaxed
	  B		A	
I never said to love me back
	  B		A	B  B
What was I next to you?

E	 E	B	A A
A	B	E E      X2

A	B		A
In my mind it all goes back
	B		A
Lost control of what I had
	B		A	B	B
All my thoughts left one by one

Solo (backing chords: E/Ab/A/B):
  E               Ab             A                    B
e|---------------------------------------------------------------------|
b|--------5-5-4-4--------5-5-4-4--------5-5-4-4-------5-5-4-4----------|
g|----------------1-1--1---------2-2--2---------2-2-2------------------|
d|-2-2--2--------------------------------------------------------------|
a|---------------------------------------------------------------------|
E|---------------------------------------------------------------------|

Play it twice, but change the last section of the solo for this:

e|---------------|
b|-----7-7-5-5-4-|
g|-4-4-----------|
d|---------------|
a|---------------|
E|---------------|

E
I lost my way.
C#
That's what she said
B		A
Back to the 101
E
Back to the one
C#
I never won
B		A
Back to the 101
E	A	B
E	A	B 	B

Eb 
I count the one
C
I count the one
Bb		Ab		
I count the one oh one
Eb
I know (I count the one)
C
I lost (I count the one)
Bb		Ab
My way (I count the one oh one)

This time (I count the one)
We'll find (I count the one)
A place (I count the one oh one)

I know (I count the one)
I lost (I count the one)
My way (I count the one oh one)

This time (I count the one)
We'll find (I count the one)
A place (I count the one oh one)


Добавлено: 05.06.2012
Другие материалы по этой песне:

Страница создана 15.04.2012
http://primanota.ru/albert-hammond-jr/back-to-the-101-chords.htm
Привет, Гость.
Предлагаем пройти революционный курс по гитаре.
Подарок от PrimaNota.Ru, забирай!