PrimaNota.ru - самый крупный в мире бесплатный архив песенных текстов, аккордов, табулатур и нот


Albert E Brumley - Ill Fly Away - таба, видео

Регистрация Запомнить меня
Войти через:  Facebook Google Twitter Vk Yandex Mail.ru

Albert E Brumley - Ill Fly Away - таба, видео

Печатать
Просмотров: 33
Авторы: Albert E. Brumley

-------------------------------------------------------------------------------
                             SONG NAME - Band Name
-------------------------------------------------------------------------------
Tabbed by:
E-mail:
 key of A
Tuning:E-A-D-G-B-e
capo: 2
e|---------------------------------------------------------------------------|
B|--0-----------------0---------0---1----0----------------0----------------0-|
G|--------0-------0---------3----------------0----------------0---------0----|
D|--0---------0-------0---------0---2----0---2----2--2-0--0---------0------0-|
A|--------2---2---2---------4---------------------3--3-2------2-----2---2----|
E|---------------------------------------------------------------------------|
   some glad morning when this life is o'er I'll fly away to that home on God's
e|---------------------------------------------------------------------------|
B|-----0--1----0-----0-------------------------------------------------------|
G|--3--------------------2--2-0----------------------------------------------|
D|-----0--2----0-----0---0--0-0----------------------------------------------|
A|--4------------------------------------------------------------------------|
E|---------------------------------------------------------------------------|
   celestial shore I'll fly away 
e|---------------------------------------------------------------------------|
B|--------3---0--0-3--0---------------------------------------0----0---1--0--|
G|--------0---0--0-0------2-0---0--------------------0---0--2---3------------|
D|--------------------0---0-0--------2--2-0---0---2-----------0----0---2--0--|
A|------------------------------3----3--3-2---2---3--2---2--3---4------------|
E|---------------------------------------------------------------------------|
chorus: I'll fly away oh glory I'll fly away when I die hallelujah by and by 
e|---------------------------------------------------------------------------|
B|---0-----------------------------------------------------------------------|
G|-------2--2--0-------------------------------------------------------------|
D|---0-----------------------------------------------------------------------|
A|-------3--3--2-------------------------------------------------------------|
E|---------------------------------------------------------------------------|
   I'll fly away 

************************************

| /   slide up
| \   slide down
| h   hammer-on
| p   pull-off
| ~   vibrato
| +   harmonic
| x   Mute note
| b   Bend
| pb  Pre-bend
| br  Bend release
| pbr Pre-bend release
| brb Bend release bend

************************************
Добавлено: 29.11.2015
Вам также может быть интересно:
Другие материалы по этой песне:
  • Аккорды и текст

Страница создана 29.11.2015
http://primanota.ru/albert-e-brumley/ill-fly-away-chords.htm
Привет, Гость.
Предлагаем пройти революционный курс по гитаре.
Подарок от PrimaNota.Ru, забирай!