PrimaNota.ru - самый крупный в мире бесплатный архив песенных текстов, аккордов, табулатур и нот


Albert Collins - Put The Shoe On The Other Foot - бас-таба, видео

Регистрация Запомнить меня
Войти через:  Facebook Google Twitter Vk Yandex Mail.ru

Albert Collins - Put The Shoe On The Other Foot - бас-таба, видео

Печатать
Просмотров: 145
Уроки эстрадного вокала в Санкт-Петербурге
Albert Collins
Put the shoe
   on the other foot


Tuning: EADG
Tempo: 168 bpm

Key signature: D

Intro: 00:01 Drum / bass
G|---------------------||---------------------|-
D|--+---+---+----+-+---||--+---+---+----+-+---|-
A|--5---5---5----5-5---||--5---5---5----5-5---|- x2 (optional)
E|---------------------||---------------------|-
 00:13  
G|---------------------||---------------------|-
D|-------4h7--4--------||-------2h5-----------|-
A|---4-7--------7--4h7-||---2-5-------g2-3-4--|- 
E|-5-------------------||-3-------------------|-

G|-------4h5--4--------||-------4h7--4--------|-
D|---4-7--------7--4h7-||---4-7--------7--4h7-|-
A|-5-------------------||-5-------------------|- 
E|---------------------||---------------------|-


Verse1: 00:25 
G|-------4h5--4--------||-------4h7-----------|-
D|---4-7--------7--4h7-||---4-7------4--5--6g-|-
A|-5-------------------||-5-------------------|- 
E|---------------------||---------------------|-
Put your shoe on the other foot
You can walk just like me

G|-------4h5--4--------||-------4h7--5--4-----|-
D|---4-7--------7--4\7r||---4-7------------7g-|-
A|-5-------------------||-5-------------------|- 
E|---------------------||---------------------|-

G|---------------------||---------------------|-
D|-------2h3--2--------||--------2h5----------|-
A|---2-5--------5--2h5-||---2-5-------2g-3--4/|- 
E|-3-------------------||-3-------------------|-
Put your shoe on another foot
You can walk just like me

G|-------4h5--4--------||-------4h7-----------|-
D|---4-7--------7--4h7-||---4-7------4--5--6g-|-
A|-5-------------------||-5-------------------|- 
E|---------------------||---------------------|-

G|---------------------||---------------------|-
D|-------4h7--5--4-----||-------2h5-----------|-
A|---4-7------------7g-||---2-5-------2g-3--4/|- 
E|-5-------------------||-3-------------------|-
Walkin' an' a talkin'
See an' feel a just like me

G|-------4h5--4--------||-------4h7-----------|-
D|---4-7--------7--4h7-||---4-7------4--5--6g-|-
A|-5-------------------||-5-------------------|- 
E|---------------------||---------------------|-


Verse2: 01:00 
G|-------4h5--4--------||-------4h7-----------|-
D|---4-7--------7--4h7-||---4-7------4--5--6g-|-
A|-5-------------------||-5-------------------|- 
E|---------------------||---------------------|-
Put your hand in another glove
You can feel just like me

G|-------4h5--4--------||-------4h7--5--4-----|-
D|---4-7--------7--4\7r||---4-7------------7g-|-
A|-5-------------------||-5-------------------|- 
E|---------------------||---------------------|-

G|---------------------||---------------------|-
D|-------2h3--2--------||--------2h5----------|-
A|---2-5--------5--2h5-||---2-5-------2g-3--4/|- 
E|-3-------------------||-3-------------------|-
Put your hand in another glove
You can feel a just like me

G|-------4h7--4--------||-------4h5--4--------|-
D|---4-7--------7--4h7-||---4-7--------7--4h7-|-
A|-5-------------------||-5-------------------|- 
E|---------------------||---------------------|-

G|---------------------||---------------------|-
D|-------4h7--5--4-----||-------2h5-----------|-
A|---4-7------------7g-||---2-5-------2g-3--4/|- 
E|-5-------------------||-3-------------------|-
Walkin' an' a talkin'
See an' feel a just like me

G|-------4h7--4--------||-------4h5--4--------|-
D|---4-7--------7--4h7-||---4-7--------7--4h7-|-
A|-5-------------------||-5-------------------|- 
E|---------------------||---------------------|-

Put your shoes on, baby


Solo1: 01:35
G|-------4h5--4--------||-------4h7-----------|-
D|---4-7--------7--4h7-||---4-7------4--5--6g-|-
A|-5-------------------||-5-------------------|- 
E|---------------------||---------------------|-

G|-------4h5--4--------||-------4h7--5--4-----|-
D|---4-7--------7--4\7r||---4-7------------7g-|-
A|-5-------------------||-5-------------------|- 
E|---------------------||---------------------|-

G|---------------------||---------------------|-
D|-------2h3--2--------||--------2h5----------|-
A|---2-5--------5--2h5-||---2-5-------2g-3--4/|- 
E|-3-------------------||-3-------------------|-

G|-------4h5--4--------||-------4h7-----------|-
D|---4-7--------7--4h7-||---4-7------4--5--6g-|-
A|-5-------------------||-5-------------------|- 
E|---------------------||---------------------|-

G|---------------------||---------------------|-
D|-------4h7--5--4-----||-------2h5-----------|-
A|---4-7------------7g-||---2-5-------2g-3--4/|- 
E|-5-------------------||-3-------------------|-

G|-------4h5--4--------||-------4h7--4--------|-
D|---4-7--------7--4h7-||---4-7--------7--4h7-|-
A|-5-------------------||-5-------------------|- 
E|---------------------||---------------------|-


Verse3: 02:10
G|-------4h5--4--------||-------4h7-----------|-
D|---4-7--------7--4h7-||---4-7------4--5--6g-|-
A|-5-------------------||-5-------------------|- 
E|---------------------||---------------------|-
Put your eye on another view
You can see just like me

G|-------4h5--4--------||-------4h7--5--4-----|-
D|---4-7--------7--4\7r||---4-7------------7g-|-
A|-5-------------------||-5-------------------|- 
E|---------------------||---------------------|-

G|---------------------||---------------------|-
D|-------2h3--2--------||--------2h5----------|-
A|---2-5--------5--2h5-||---2-5-------2g-3--4/|- 
E|-3-------------------||-3-------------------|-
Hey, put your eye on another view
You can see just like me

G|-------4h5--4--------||-------4h7-----------|-
D|---4-7--------7--4h7-||---4-7------4--5--6g-|-
A|-5-------------------||-5-------------------|- 
E|---------------------||---------------------|-

G|---------------------||---------------------|-
D|-------4h7--5--4-----||-------2h5-----------|-
A|---4-7------------7g-||---2-5-------2g-3--4/|- 
E|-5-------------------||-3-------------------|-
Walkin' an' a talkin'
See an' feel a just like me

G|-------4h7--4--------||-------4h5--4--------|-
D|---4-7--------7--4h7-||---4-7--------7--4h7-|-
A|-5-------------------||-5-------------------|- 
E|---------------------||---------------------|- 


Verse4: 02:44 
G|-------4h5--4--------||-------4h7-----------|-
D|---4-7--------7--4h7-||---4-7------4--5--6g-|-
A|-5-------------------||-5-------------------|- 
E|---------------------||---------------------|-
Put your tongue on another word
You can talk just like me

G|-------4h5--4--------||-------4h7--5--4-----|-
D|---4-7--------7--4\7r||---4-7------------7g-|-
A|-5-------------------||-5-------------------|- 
E|---------------------||---------------------|-

G|---------------------||---------------------|-
D|-------2h3--2--------||--------2h5----------|-
A|---2-5--------5--2h5-||---2-5-------2g-3--4/|- 
E|-3-------------------||-3-------------------|-
Put your tongue on another word
You can talk just like me

G|-------4h5--4--------||-------4h7-----------|-
D|---4-7--------7--4h7-||---4-7------4--5--6g-|-
A|-5-------------------||-5-------------------|- 
E|---------------------||---------------------|-

G|---------------------||---------------------|-
D|-------4h7--5--4-----||-------2h5-----------|-
A|---4-7------------7g-||---2-5-------2g-3--4/|- 
E|-5-------------------||-3-------------------|-
Walkin' an' a talkin'
See an' feel a just like me

G|-------4h7--4--------||-------4h5--4--------|-
D|---4-7--------7--4h7-||---4-7--------7--4h7-|-
A|-5-------------------||-5-------------------|- 
E|---------------------||---------------------|-


G|-------4h7--4--------||-------4h5--4--------|-
D|---4-7--------7--4h7-||---4-7--------7--4h7-|-
A|-5-------------------||-5-------------------|- 
E|---------------------||---------------------|-
Put your hand in another glove
You can feel just like me

G|-------4h7--4--------||-------4h5--7-5-4----|-
D|---4-7--------7--4h7-||---4-7------------g7-|-
A|-5-------------------||-5-------------------|- 
E|---------------------||---------------------|-

 
Solo2: 03:19  
G|-------4h5--4--------||-------4h7-----------|-
D|---4-7--------7--4h7-||---4-7------4--5--6g-|-
A|-5-------------------||-5-------------------|- 
E|---------------------||---------------------|-

G|-------4h5--4--------||-------4h7--5--4-----|-
D|---4-7--------7--4\7r||---4-7------------7g-|-
A|-5-------------------||-5-------------------|- 
E|---------------------||---------------------|-
Always talkin' all the time

G|---------------------||---------------------|-
D|-------2h3--2--------||--------2h5----------|-
A|---2-5--------5--2h5-||---2-5-------2g-3--4/|- 
E|-3-------------------||-3-------------------|-
Whoa, whoa, whoa, ho
Walk on, baby

G|-------4h5--4--------||-------4h7-----------|-
D|---4-7--------7--4h7-||---4-7------4--5--6g-|-
A|-5-------------------||-5-------------------|- 
E|---------------------||---------------------|-
Whoooo, whoooo,

G|---------------------||---------------------|-
D|-------4h7--5--4-----||-------2h5-----------|-
A|---4-7------------7g-||---2-5-------2g-3--4/|- 
E|-5-------------------||-3-------------------|-
Walkin' an' a talkin'
See an' feel a just like me

G|-------4h7--4--------||-------4h5--4--------|-
D|---4-7--------7--4h7-||---4-7--------7--4h7-|-
A|-5-------------------||-5-------------------|- 
E|---------------------||---------------------|-
Whoa, whoa, whoa ho

Ooh, ooh

Solo3 finale: 03:53 Play x3
G|-------4h5--4--------||-------4h7-----------|-
D|---4-7--------7--4h7-||---4-7------4--5--6g-|-
A|-5-------------------||-5-------------------|- 
E|---------------------||---------------------|-

G|-------4h5--4--------||-------4h7--5--4-----|-
D|---4-7--------7--4\7r||---4-7------------7g-|-
A|-5-------------------||-5-------------------|- 
E|---------------------||---------------------|-

G|---------------------||---------------------|-
D|-------2h3--2--------||--------2h5----------|-
A|---2-5--------5--2h5-||---2-5-------2g-3--4/|- 
E|-3-------------------||-3-------------------|-

G|-------4h5--4--------||-------4h7-----------|-
D|---4-7--------7--4h7-||---4-7------4--5--6g-|-
A|-5-------------------||-5-------------------|- 
E|---------------------||---------------------|-

G|---------------------||---------------------|-
D|-------4h7--5--4-----||-------2h5-----------|-
A|---4-7------------7g-||---2-5-------2g-3--4/|- 
E|-5-------------------||-3-------------------|-

G|-------4h7--4--------||-------4h5--4--------|-
D|---4-7--------7--4h7-||---4-7--------7--4h7-|-
A|-5-------------------||-5-------------------|- 
E|---------------------||---------------------|-


Outro: 05:00 xx repeat till fade out
G|-------4h5--4--------||-------4h7-----------|-
D|---4-7--------7--4h7-||---4-7------4--5--6g-|-
A|-5-------------------||-5-------------------|- 
E|---------------------||---------------------|-

G|-------4h7--4--------||-------4h5--4--------|-
D|---4-7--------7--4\7r||---4-7--------7--4h7-|-
A|-5-------------------||-5-------------------|- 
E|---------------------||---------------------|-


End: 05:33

Tablature Legend
----------------

| S  slap
| r  bend and release
| P  pop
| x  mute note
| .  full stop
| /  slide up
| \  slide down
| h  hammer-on
| p  pull-off
| g  grace note
| ~  vibrato
| ^  brush up
Добавлено: 05.09.2015
Другие материалы по этой песне:
  • Аккорды и текст

Страница создана 05.09.2015
http://primanota.ru/albert-collins/put-shoe-on-other-foot-chords.htm
Привет, Гость.
Предлагаем пройти революционный курс по гитаре.
Подарок от PrimaNota.Ru, забирай!