PrimaNota.ru - самый крупный в мире бесплатный архив песенных текстов, аккордов, табулатур и нот


Albert Collins - Frosty - бас-таба, видео

Регистрация Запомнить меня
Войти через:  Facebook Google Twitter Vk Yandex Mail.ru

Albert Collins - Frosty - бас-таба, видео

Печатать
Просмотров: 135
Albert Collins
Frosty

Tuning: EADG
Tempo: 154 bpm

Key signature: D

INSTRUMENTAL 

Drums +++++
Bass starts: 00:11  -  12 bar patterns to play as follow:
G|-------4-------4-||-------4-7-4-----||-----------------||-------4-7-4-----|-
D|---4-7-----4-7---||---4-7-------7-4-||-------2-------2-||---4-7-------7-4-|-
A|-5-------5-------||-5---------------||---2-5-----2-5---||-5---------------|-
E|-----------------||-----------------||-3-------3-------||-----------------|-

G|-----------------||-------4-7-4-----||-
D|-------4--------2||---4-7-------7-4-||-
A|---4-7------2-5--||-5---------------||-
E|-5--------3------||-----------------||-

G|-------4-------4-||-------4-7-4-----||-----------------||-------4-7-4-----|-
D|---4-7-----4-7---||---4-7-------7-4-||-------2-------2-||---4-7-------7-4-|-
A|-5-------5-------||-5---------------||---2-5-----2-5---||-5---------------|-
E|-----------------||-----------------||-3-------3-------||-----------------|-

G|-----------------||-----------------||-
D|-------4--------2||-----------------||-
A|---4-7------2-5--||-5.--------------||-
E|-5--------3------||-----------------||-

00:49
G|-------4-7-4-----||-------4-7-4-----||-----------------||-------4-7-4-----|-
D|---4-7-------7-4-||---4-7-------7-4-||-------2-5-2-----||---4-7-------7-4-|-
A|-5---------------||-5---------------||---2-5-------5-2-||-5---------------|-
E|-----------------||-----------------||-3---------------||-----------------|-

G|-----------------||-----------------||-
D|-------4--7-5-4--||-----------------||-
A|---4-7----------7||-5.--------------||-
E|-5---------------||-----------------||-

01:08
G|-------4-7-4-----||-------4-7-4-----||-----------------||-------4-7-4-----|-
D|---4-7-------7-4-||---4-7-------7-4-||-------2-5-2-----||---4-7-------7-4-|-
A|-5---------------||-5---------------||---2-5-------5-2-||-5---------------|-
E|-----------------||-----------------||-3---------------||-----------------|-

G|-----------------||-------4-7-4-----||-
D|-------4--7-5-4--||---4-7-------7-4-||-
A|---4-7----------7||-5---------------||-
E|-5---------------||-----------------||-

01:27 ("Funky" guitar play)
G|-------4-5-4-----||-------4-5-4-----||-----------------||-------4-5-4-----|-
D|---4-7-------7-4-||---4-7-------7-4-||-------2-3-2-----||---4-7-------7-4-|-
A|-5---------------||-5---------------||---2-5-------5-2-||-5---------------|-
E|-----------------||-----------------||-3---------------||-----------------|-

G|-----------------||-------4-7-4-----||-
D|-------4-5-4-----||---4-7-------7-4-||-
A|---4-7-------7-4-||-5---------------||-
E|-5---------------||-----------------||-

Repeat: xxx...
G|-------4-7-4-----||-------4-7-4-----||-----------------||-------4-7-4-----|-
D|---4-7-------7-4-||---4-7-------7-4-||-------2-5-2-----||---4-7-------7-4-|-
A|-5---------------||-5---------------||---2-5-------5-2-||-5---------------|-
E|-----------------||-----------------||-3---------------||-----------------|-

G|-----------------||-------4-7-4-----||-
D|-------4--7-5-4--||---4-7-------7-4-||-
A|---4-7----------7||-5---------------||-
E|-5---------------||-----------------||-


02:23 ("Funky" guitar chords)
G|-------4-------4-||-------4-7-4-----||-----------------||-------4-7-4-----|-
D|---4-7-----4-7---||---4-7-------7-4-||-------2-------2-||---4-7-------7-4-|-
A|-5-------5-------||-5---------------||---2-5-----2-5---||-5---------------|-
E|-----------------||-----------------||-3-------3-------||-----------------|-

G|-----------------||-------4-7-4-----||-
D|-------4--------2||---4-7-------7-4-||-
A|---4-7------2-5--||-5---------------||-
E|-5--------3------||-----------------||-

Repeat alternatively: xxx...
G|-------4-7-4-----||-------4-7-4-----||-----------------||-------4-7-4-----|-
D|---4-7-------7-4-||---4-7-------7-4-||-------2-5-2-----||---4-7-------7-4-|-
A|-5---------------||-5---------------||---2-5-------5-2-||-5---------------|-
E|-----------------||-----------------||-3---------------||-----------------|-

G|-----------------||-------4-7-4-----||-
D|-------4--7-5-4--||---4-7-------7-4-||-
A|---4-7----------7||-5---------------||-
E|-5---------------||-----------------||-


G|-------4-7-4-----||-------4-7-4-----||-----------------||-------4-7-4-----|-
D|---4-7-------7-4-||---4-7-------7-4-||-------2-5-2-----||---4-7-------7-4-|-
A|-5---------------||-5---------------||---2-5-------5-2-||-5---------------|-
E|-----------------||-----------------||-3---------------||-----------------|-

G|-----------------||-------4-7-4-----||-
D|-------4-7-4-----||---4-7-------7-4-||-
A|---4-7-------4-7-||-5---------------||-
E|-5---------------||-----------------||-


G|-------4-------4-||-------4-7-4-----||-----------------||-------4-7-4-----|-
D|---4-7-----4-7---||---4-7-------7-4-||-------2-------2-||---4-7-------7-4-|-
A|-5-------5-------||-5---------------||---2-5-----2-5---||-5---------------|-
E|-----------------||-----------------||-3-------3-------||-----------------|-

G|-----------------||-------4-7-4-----||-
D|-------4--------2||---4-7-------7-4-||-
A|---4-7------2-5--||-5---------------||-
E|-5--------3------||-----------------||-


03:56
G|-------4-------4-||-------4-7-4-----||-----------------||-------4-7-4-----|-
D|---4-7-----4-7---||---4-7-------7-4-||-------2-------2-||---4-7-------7-4-|-
A|-5-------5-------||-5---------------||---2-5-----2-5---||-5---------------|-
E|-----------------||-----------------||-3-------3-------||-----------------|-

G|-----------------||-----------------||-
D|-------4--------2||-----------------||-
A|---4-7------2-5--||-5.--------------||-
E|-5--------3------||-----------------||-


04:14
G|-------4-------4-||-------4-7-4-----||-----------------||-------4-7-4-----|-
D|---4-7-----4-7---||---4-7-------7-4-||-------2-------2-||---4-7-------7-4-|-
A|-5-------5-------||-5---------------||---2-5-----2-5---||-5---------------|-
E|-----------------||-----------------||-3-------3-------||-----------------|-

G|-----------------||-----------------||-------||-
D|-------4--------2||----4g-----------||-------||-
A|---4-7------2-5--||-5g----5g~-------||--5~~--||-
E|-5--------3------||-----------------||-------||-

End: 04:57


Tablature Legend ----------------  
| S  slap 
| P  pop 
| x  mute note 
| /  slide up 
| \  slide down 
| h  hammer-on 
| p  pull-off 
| g  grace note 
| ~  vibrato 
| ^  brush up
Добавлено: 05.09.2015
Вам также может быть интересно:
Другие материалы по этой песне:
  • Аккорды и текст

Страница создана 05.09.2015
http://primanota.ru/albert-collins/frosty-chords.htm
Привет, Гость.
Предлагаем пройти революционный курс по гитаре.
Подарок от PrimaNota.Ru, забирай!