PrimaNota.ru - самый крупный в мире бесплатный архив песенных текстов, аккордов, табулатур и нот


Albatross - Timi Bhane - аккорды и текст, таба, видео

Регистрация Запомнить меня
Войти через:  Facebook Google Twitter Vk Yandex Mail.ru

Albatross - Timi Bhane - аккорды и текст, таба, видео

Печатать
Просмотров: 153
Timi Bhane
Albatross
Song   : Timi Bhane
Band   : Albatross
Album  : Jo Jas Sanga Sambhandhit Chha

Tuning :EADGBE

|===================|
||  Chords Used:   ||
||=================||
|| E      :022100  ||
|| F#m    :244222  ||
|| Asus2  :x02200  ||
|| C#m    :x02120  ||
|| B      :x24442  ||
|===================|

|=====================|
|| Tablature Legend: ||
||===================||
|| s - slide         ||
|| b - bend          ||
|| h - hammer on     ||
|=====================|

From : Lama Tsubz

[Chorus:]
E                    F#m
Farki farki nahera malai
Asus2               E  F#m
Farki farki nahera malai
        Asus2
Timi bhane

| E | E | C#m | C#m | Asus2 | F#m | Asus2 | Asus2 |

[Verse 1:]
E
Aanshu jhare ma puchi diula
C#m
Aakashko tara sabai
          Asus2       F#m
Ma tipera lyayi diula
        Asus2
Timi bhane

E
Farkera aau timi gham bani
C#m
Badalko mathi ma
        Asus2          F#m
Timilai parkhi basoula
        Asus2
Timi bhane

C#m        B
Lina aaba kehi chaina
C#m         F#m
Matra eutai bahana
Asus2       C#m
Dina matra khoji rachhu
Asus2          E  F#m
Yahi nai mero chahana
        Asus2
Timi bhane

[Solo:]
E|----------------------------------------------------------|
B|-12b-12-9-12-9-----9--------------------------------------|
G|---------------11b---11-9--------9------------------------|
D|----------------------------9-11---11-9-11-11-9----9------|
A|------------------------------------------------11---11-9-|
E|----------------------------------------------------------|

E|----------------------------------------------------------|
B|-----------------------12---------------------------------|
G|---------------8-9-11b----11b-9--11-9---------9---------9-|
D|--------7-9-11------------------------11-9-11---11-9-11---|
A|-7-9-11---------------------------------------------------|
E|----------------------------------------------------------|

E|-12b-12-9-----9---------12b---12-14b----|
B|----------12b---12-9--------------------|
G|---------------------11-----------------|
D|----------------------------------------|
A|----------------------------------------|
E|----------------------------------------|

E|-12-11-9h11----9-----------------------------------------------|
B|------------12---12-9----9-----------------------12------------|
G|----------------------11---11-9---------9-11-11b----11b-11-9---|
D|--------------------------------11-9-11------------------------|
A|---------------------------------------------------------------|
E|---------------------------------------------------------------|

E|-------------------------------------7-----7---------4---------|
B|-------------7-------------------4-5---5-4---5-4-7-5---5-4h5---|
G|-6s8-9-8-6-9---8-9-8-6-9-8-6-4-6-----------------------------6-|
D|---------------------------------------------------------------|
A|---------------------------------------------------------------|
E|---------------------------------------------------------------|

E|-----------------------------------------------------------------------|
B|-----------------------4s5-5-5s7-7-7s9-9s10-10-10s9-9-9s7-7-7s5s7-7-7b-|
G|---4-------4-------4-6-------------------------------------------------|
D|-6---6-4-6---6-4-6-----------------------------------------------------|
D|-----------------------------------------------------------------------|
E|-----------------------------------------------------------------------|

[Verse 2:]
E
Parkhalma basi aaba sochi rahe
C#m
Sapana sara mera
          Asus2     F#m
Bilayeko chalai payina
        Asus2
Timi bhane

E
Virama uvi aaba tolai rahe
C#m
Sansarka sara sukha
       Asus2     F#m
Vulai aaghi hide ma
        Asus2
Timi bhane

C#m        B
Lina aaba kehi chaina
C#m         F#m
Matra eutai bahana
Asus2       C#m
Dina matra khoji rachhu
Asus2          E  F#m
Yahi nai mero chahana
        Asus2
Timi bhane

[Chorus:]
E                    F#m   ]
Farki farki nahera malai   ]  x4
Asus2               E  F#m ]
Farki farki nahera malai   ]
        Asus2
Timi bhane
Добавлено: 02.08.2014
Другие материалы по этой песне:

Страница создана 09.04.2012
http://primanota.ru/albatross/timi-bhane-chords.htm
Привет, Гость.
Предлагаем пройти революционный курс по гитаре.
Подарок от PrimaNota.Ru, забирай!