PrimaNota.ru - самый крупный в мире бесплатный архив песенных текстов, аккордов, табулатур и нот


Alarm - 45 Rpm - таба, видео

Регистрация Запомнить меня
Войти через:  Facebook Google Twitter Vk Yandex Mail.ru

Alarm - 45 Rpm - таба, видео

Печатать
Просмотров: 140
Artist: The Alarm
Song:   45 RPM
Tabbed: By Danny Conroy
Tuning: Standard


Intro/Verse
e|----------------------------------|
B|----------------------------------|
G|------9-7-7-7-7--------11-9-9-9-9-|
D|--7-7-9-7-7-7-7---7-7--11-9-9-9-9-| x8
A|--7-7-7-5-5-5-5---7-7--9--7-7-7 7-|
E|--5-5-------------5-5-------------|

"A spinal scratch..."


Bridge
e|------------------------------------------------------------|
B|------------------------------------------------------------|
G|--9-7-7-7-7-7-7-7-7-6-6-6-6-6-6-6-6-4-4-4-4-4-4-4-4-8-8-8-8-|
D|--9-7-7-7-7-7-7-7-7-6-6-6-6-6-6-6-6-4-4-4-4-4-4-4-4-8-8-8-8-| 
A|--7-5-5-5-5-5-5-5-5-4-4-4-4-4-4-4-4-2-2-2-2-2-2-2-2-6-6-6-6-|
E|------------------------------------------------------------|

"I heard a voice, in the noise, pollution, whoa!..."


Chorus
e|------------------------------------------------------------|
B|------------------------------------------------------------|
G|---------------------------7-7-7-7-7-7-7-7------------------|
D|--7-7-7-7-7-7-7-7-7-7-7-7--7-7-7-7-7-7-7-7-7-7-7-7----------| 
A|--7-7-7-7-7-7-7-7-7-7-7-7--5-5-5-5-5-5-5-5-7-7-7-7----------|
E|--5-5-5-5-5-5-5-5-5-5-5-5------------------5-5-5-5----------|

"45 RPM! 45... 45 RPM! 45..." (chorus tab continues below)


Chorus [part 2]
e|--------------------------------------------------------------|
B|--------------------------------------------------------------|
G|--9-9-9-9-9-9-9-9-9-9-9-9-9-9-9-9-------7-7-----7-7-----7-7---|
D|--9-9-9-9-9-9-9-9-9-9-9-9-9-9-9-9-7-7-7-7-7-7-7-7-7-7-7-7-7-7-| 
A|--7-7-7-7-7-7-7-7-7-7-7-7-7-7-7-7-7-7-7-5-5-7-7-5-5-7-7-5-5-7-|
E|----------------------------------5-5-5-----5-5-----5-5-----5-|

"45 RPM, keep on running 'til the end! 45 RPM, RPM, RPM!..."


Middle 8 [Slower part]
e|----------------|
B|----------------|
G|--9---9-7---7---|
D|--9---9-7---7-7-| x2
A|--7---7-5---5-7-|
E|--------------5-|

"Four-ty-five, RPM...(Heard a voice in the noise pollution)"
"Four-ty-five, RPM...(Keep on running 'til the end!)"..build up:

Outtro
e|----------------------------------------------------------------|
B|----------------------------------------------------------------|
G|--9-9-9-9-9-9-9-9-7-7-7-7-7-7-7-7-------------------------------|
D|--9-9-9-9-9-9-9-9-7-7-7-7-7-7-7-7-7-7-7-7-7-7-7-7---------------| 
A|--7-7-7-7-7-7-7-7-5-5-5-5-5-5-5-5-7-7-7-7-7-7-7-7---------------|
E|----------------------------------5-5-5-5-5-5-5-5---------------|
"Four-ty-five, RPM...(45 RPM, 45 RPM)"
e|----------------------------------------------------------------|
B|----------------------------------------------------------------|
G|--9-9-9-9-9-9-9-9-7-7-7-7-7-7-7-7---------7-7-----7-7-----7-7---|
D|--9-9-9-9-9-9-9-9-7-7-7-7-7-7-7-7-7-7-7-7-7-7-7-7-7-7-7-7-7-5-7-|
A|--7-7-7-7-7-7-7-7-5-5-5-5-5-5-5-5-7-7-7-7-5-5-7-7-5-5-7-7-5-5-7-|
E|----------------------------------5-5-5-5-----5-5-----5-5-----5-|
"Four-ty-five, RPM...(45 RPM, 45 RPM)"


No solo as of yet. If you have any corrections or general questions:

HCRdanny@gmail.com

Cheers
Добавлено: 01.03.2012
Другие материалы по этой песне:
  • Аккорды и текст

Страница создана 01.03.2012
http://primanota.ru/alarm/45-rpm-chords.htm
Привет, Гость.
Предлагаем пройти революционный курс по гитаре.
Подарок от PrimaNota.Ru, забирай!