PrimaNota.ru - самый крупный в мире бесплатный архив песенных текстов, аккордов, табулатур и нот


Alanna Matty - Distance - таба, видео

Регистрация Запомнить меня
Войти через:  Facebook Google Twitter Vk Yandex Mail.ru

Alanna Matty - Distance - таба, видео

Печатать
Просмотров: 93
-------------------------------------------------------------------------------
                             DISTANCE - Alanna Matty
-------------------------------------------------------------------------------
Tabbed by: Matty
E-mail: mattyisorange@live.ca

Tuning: Standard 

Note: The picking pattern in the recording is always the same, just use the frets that are marked.
 >>parts where the pattern is played is marked with a *  <<
    
Finger Picking pattern is:
e|---------------------------------------------------------------------------|
B|--x-----x----x-------------------------------------------------------------|
G|-----x----------x----------------------------------------------------------|
D|---------------------------------------------------------------------------|
A|--x-------x----------------------------------------------------------------|
E|---------------------------------------------------------------------------|

Intro/Verse
e|--------------------------------------------------------------------------|
B|--3*----5--7--8*--10*-----------------------------------------------------|
G|----0----0--0--0----------------------------------------------------------|
D|--------------------------------------------------------------------------|
A|--2-----3--5--7---9-------------------------------------------------------|
E|--------------------------------------------------------------------------|

Chorus
e|---------------------------------------------------------------------------|
B|-12*-15--13--10*--8*--x3 then--8/10-10-------------------------------------|
G|--0----0---0---0---0-------------------------------------------------------|
D|---------------------------------------------------------------------------|
A|-10--14--12---9---7------------7/9---9-------------------------------------|
E|---------------------------------------------------------------------------|

Post-Chorus
e|---------------------------------------------------------------------------|
B|-12*--10--12---7*--5----12*--10--12--7*--8*--8/10--------------------------|
G|--------0---0-------------0----0---0--0---0---0----------------------------|
D|---------------------------------------------------------------------------|
A|-10---9---10---5---3----10----9--10--5---7---7/9---------------------------|
E|---------------------------------------------------------------------------|

Bridge
e|---------------------------------------------------------------------------|
B|-5*--7*--8*---8--3--x3---5*--7*--8*---12--8--10--8-------------------------|
G|---------------0--0---------------------0--0-------------------------------|
D|---------------------------------------------------------------------------|
A|-3---5---7----7--2-------3---5---7----10--7---9--7-------------------------|
E|---------------------------------------------------------------------------|

Listen to the recording to hear what order these things go in --> www.youtube.com/630films
Enjoy!

************************************

| /   slide up
| \   slide down
| h   hammer-on
| p   pull-off
| ~   vibrato
| +   harmonic
| x   Mute note
| b   Bend
| pb  Pre-bend
| br  Bend release
| pbr Pre-bend release
| brb Bend release bend

************************************
Добавлено: 10.08.2015
Другие материалы по этой песне:
  • Аккорды и текст

Страница создана 10.08.2015
http://primanota.ru/alanna-matty/distance-chords.htm
Привет, Гость.
Предлагаем пройти революционный курс по гитаре.
Подарок от PrimaNota.Ru, забирай!