PrimaNota.ru - самый крупный в мире бесплатный архив песенных текстов, аккордов, табулатур и нот


Alanis Morissette - Versions Of Violence - текст песни, бас-таба, видео

Регистрация Запомнить меня
Войти через:  Facebook Google Twitter Vk Yandex Mail.ru

Alanis Morissette - Versions Of Violence - текст песни, бас-таба, видео

Печатать
Просмотров: 145
Авторы музыки: Alanis Morissette, Guy Sigsworth
Авторы текста: Alanis Morissette
Artist: Alanis Morissette
Song: Versions Of Violence
Album: Flavors Of Entanglement (2008)
Bassist: Peter Freeman
Tuning: Dropped D

Intro/Verse:

G|----------------|    |----------------|
D|----------------|    |--------0h12\---|
A|5\--5\--5/8\5/8-|    |5\--5\----------|
D|----------------| x5 |----------------|

G|----------------|
D|----------------|
A|5\--5\--5/8\5/8-|
D|----------------| x3

G|----------------|
D|----------------|
A|5\--------------| slowly perform third slide
D|---12\---/------|

Chorus:

G|------------|    |------------|      You can play 5 on A string 
D|------------|    |------------|   second and third time instead of
A|----5/8\5/8-|    |5\--5/8\----|      12 on low D to ease playing
D|12\---------| x3 |------------|

G|------------|    |-------------|------------|
D|------------|    |-------------|----/(12)\--|
A|5\--5/8\5/8-|    |5\--5/8\-----|5\----------|
D|------------| x2 |-------------|------------| Little break after this.

2nd Verse:

G|----------------|    |----------------|
D|----------------|    |--------0h12\---|
A|5\--5\--5/8\5/8-|    |5\--5\----------|
D|----------------| x3 |----------------|

G|----------------|
D|----------------|
A|5\--5\--5/8\5/8-|
D|----------------| x3

G|----------------|
D|----------------|
A|5\--------------| slowly perform third slide
D|---12\---/------|

2nd Chorus:

G|------------|    |------------|
D|------------|    |------------|
A|----5/8\5/8-|    |5\--5/8\----|
D|12\---------| x3 |------------|

G|------------|    |-------------|------------|
D|------------|    |-------------|------------|
A|5\--5/8\5/8-|    |5\--5/8\-----|------------|
D|------------| x2 |-------------|12\---------|

No bass till [2:45] (slow slide again)

G|------------| 
D|------------|   
A|------------| 
D|0/----------| Perform this slide softly

Chorus:

G|------------|    |------------|
D|------------|    |------------|
A|----5/8\5/8-|    |5\--5/8\----|
E|12\---------| x3 |------------|

G|------------|    |-------------|------------|
D|------------|    |-------------|------/(12)\|
A|5\--5/8\5/8-|    |5\--5/8\-----|5\----------| Play this row 3 times
D|------------| x2 |-------------|------------| 

/  slide up
\  slide down
h  hammer-on
p  pull-off
~  let ring
() ghost note
Добавлено: 11.03.2012
Другие материалы по этой песне:
  • Аккорды и текст

Страница создана 11.03.2012
http://primanota.ru/alanis-morissette/versions-of-violence-chords.htm
Привет, Гость.
Предлагаем пройти революционный курс по гитаре.
Подарок от PrimaNota.Ru, забирай!