PrimaNota.ru - самый крупный в мире бесплатный архив песенных текстов, аккордов, табулатур и нот


Alan Thicke Gloria Loring And Al Burton - The Facts Of Life - бас-таба, видео

Регистрация Запомнить меня
Войти через:  Facebook Google Twitter Vk Yandex Mail.ru

Alan Thicke Gloria Loring And Al Burton - The Facts Of Life - бас-таба, видео

Печатать
Просмотров: 53
-------------------------------------------------------------------------------
                             The Facts of Life - Alan Thicke, Gloria Loring and Al Burton
-------------------------------------------------------------------------------
Tabbed by: Matthew Sommerfeldt (MGS22)
E-mail: sommer77@hotmail.com


Tuning:

G|---------------------------------------------------------------------------|
D|-3------3-0---------------------------3-0----------------------------------|
A|-------------1-3----1--1-1---3--3-3--------1-3----1--1-1---3--3-3----------|
E|---------------------------------------------------------------------------|

G|---------------------------------------------------------------------------|
D|--------------------3--2--0------------------------------------------------|
A|-1--------3------------------3---1--1-1---3--3-3----1-1-1-1-1-1-1-1--------|
E|---3-1-3----5-3-5----------------------------------------------------------|

G|---------------------------------------------------------------------------|
D|-3-3-3-3-3-3-3-3---------------------------3--3-3---3--3-3-----------------|
A|--------------------1----5-----------1-------------------------------------|
E|------------------------------3---3----------------------------------------|

G|---------------------------------------------------------------------------|
D|----------------3----------------------------------------------------------|
A|-1--1--1-3-4---------------------------------------------------------------|
E|---------------------------------------------------------------------------|
Добавлено: 04.08.2015
Другие материалы по этой песне:
  • Аккорды и текст

Страница создана 04.08.2015
http://primanota.ru/alan-thicke-gloria-loring-and-al-burton/facts-of-life-chords.htm
Привет, Гость.
Предлагаем пройти революционный курс по гитаре.
Подарок от PrimaNota.Ru, забирай!