PrimaNota.ru - самый крупный в мире бесплатный архив песенных текстов, аккордов, табулатур и нот


Alan Parsons Project - The System Of Dr Tarr And Professor Fether - таба, видео

Регистрация Запомнить меня
Войти через:  Facebook Google Twitter Vk Yandex Mail.ru

Alan Parsons Project - The System Of Dr Tarr And Professor Fether - таба, видео

Печатать
Просмотров: 222
Уроки эстрадного вокала в Санкт-Петербурге
Artist: Alan Parsons Project
-Album: Tales of Mystery and Imagination
--Song: Doctor Tarr and Professor Fether (The System Of)

Transcribed by Exo M7.

For questions/comments/tab requests, the email is jd0922[at]yahoo[dot]com.

This tab is for electric guitar.

---

Intro/Main riff

1st:-------------------------------------------|
2nd:-------------------------------------------|
3rd:-7^(8)-7-5--7^(8)-7-5--7^(8)-7-5-----------|
4th:----------------------------------5-7^8r7--|
5th:-------------------------------------------|
6th:-------------------------------------------| x3

Verse 1 (no guitar)

1st:-------------------------------------------|
2nd:-------------------------------------------|
3rd:-7^(8)-7-5--7^(8)-7-5--7^(8)-7-5-----------|
4th:----------------------------------5-7^8r7--|
5th:-------------------------------------------|
6th:-------------------------------------------| x2

Verse 2 (no guitar)

1st:-----------------------|
2nd:-----------------------|
3rd:-7^(8)-7-5--7^(8)-7-5--|
4th:-----------------------|
5th:-----------------------|
6th:-----------------------|

Chorus

1st:---------------------------------------------------|
2nd:---------------------------------------------------|
3rd:-----------------------------------------6-6--6--6-|
4th:-----3-------3-------3----6-6--6-6--6-6--6-6--6--6-|
5th:-------3-------3-------3--4-4--4-4--4-4--4-4--4--4-|
6th:-1-------4-------6---------------------------------|

1st:-------------------------------------------|
2nd:-------------------------------------------|
3rd:-7^(8)-7-5--7^(8)-7-5--7^(8)-7-5-----------|
4th:----------------------------------5-7^8r7--|
5th:-------------------------------------------|
6th:-------------------------------------------|

Solo

1st:--------------------------------------------------------------------------|
2nd:--------11^(13)---11/8-------------------x-x-x----------------------------|
3rd:------8----------------10/8--------8-----x-x-x--10-8-8-10-8-8-10-10-8-10--|
4th:-8/10-----------------------10-10----10--x-x-x----------------------------|
5th:--------------------------------------------------------------------------|
6th:--------------------------------------------------------------------------|

1st:-----------------------------------------------|
2nd:-----------------------------------------------|
3rd:-8/7/8--7----7---------------------------------|
4th:----------10---10------------8--7----7---------|
5th:----------------------8-9-10------10---10-/12--|
6th:-----------------------------------------------|

1st:-----------------------|
2nd:-----------------------|
3rd:-7^(8)-7-5--7^(8)-7-5--|
4th:-----------------------|
5th:-----------------------|
6th:-----------------------|

Chorus

1st:---------------------------------------------------|
2nd:---------------------------------------------------|
3rd:-----------------------------------------6-6--6--6-|
4th:-----3-------3-------3----6-6--6-6--6-6--6-6--6--6-|
5th:-------3-------3-------3--4-4--4-4--4-4--4-4--4--4-|
6th:-1-------4-------6---------------------------------| x2

1st:-------------------------------------------|
2nd:-------------------------------------------|
3rd:-7^(8)-7-5--7^(8)-7-5--7^(8)-7-5-----------|
4th:----------------------------------5-7^8r7--|
5th:-------------------------------------------|
6th:-------------------------------------------|

Outro

1st:-----------------------------------|
2nd:-----------------------------------|
3rd:-10-9-7----10-9-7----10-9-7--------|
4th:--------10--------10--------10-9~--|
5th:-----------------------------------|
6th:-----------------------------------|
Добавлено: 05.04.2012
Другие материалы по этой песне:
  • Аккорды и текст

Страница создана 05.04.2012
http://primanota.ru/alan-parsons-project/the-system-of-dr-tarr-and-professor-fether-chords.htm
Привет, Гость.
Предлагаем пройти революционный курс по гитаре.
Подарок от PrimaNota.Ru, забирай!