PrimaNota.ru - самый крупный в мире бесплатный архив песенных текстов, аккордов, табулатур и нот


Alan Parsons Project - Paseo De Gracia - таба, видео

Регистрация Запомнить меня
Войти через:  Facebook Google Twitter Vk Yandex Mail.ru

Alan Parsons Project - Paseo De Gracia - таба, видео

Печатать
Просмотров: 119
Artiest:Alan Parsons Project
Titel:Paseo de Gracia / Album : Gaudi
Door:

E|-------------------------3----------------------------------------------|
A|-------------------------3--6--464--4-----------------------------------|
D|--78767------5-7-78768---3-------------5-3-5---3--2--3--2---------------|
G|--------5-7-8------------5---------------------------------5------------|
B|-------------------------x------------------------------------5---------|
E|-------------------------x----------------------------------------------|

E|-----------------------0----0-3---2-020---------------------------------|
A|-----------------------0--0-----0-------0-------0-----------------------|
D|-----------------------0------------------2-0-2---0---------------------|
G|-----------------------2--------------------------2---------------------|
B|--353----3-5-----------2------------------------------------------------|
E|-------6------3--3--3--0------------------------------------------------|

E|------------------------------------------------------------------------|
A|--------------------------10----10-12-12---12-13-12-10------------------|
D|-----------------7-9-9-11----11-----------------------------------------|
G|---------7-9-10---------------------------------------------------------|
B|--7-9-10----------------------------------------------------------------|
E|------------------------------------------------------------------------|

E|------------------------------------------------------------------------|
A|------------------------------------------------------------------------|
D|-11-12-11---------------------------------------------------------------|
G|----------12-13-12------------------------------------------------------|
B|-------------------15-13-12-13-15-15-13-15---13-12-13-12--10-9----------|
E|------------------------------------------------------------------------|

E|-----------------------------------------3----6-565--3------------------|
A|-----------------------------------------3--3----------3----------------|
D|-----------------------------------------3---------------3--------------|
G|-------7-8-10-11-10-7-8-7--------8-7---5-5-----------------5------------|
B|-9-10----------------------9-10----------5------------------------------|
E|------------------------------------------------------------------------|

E|-3--3-5-7-7---------7--------------------------------------------------|
A|-3---------------7--8--8--7---------------------------------------------|
D|-3------------9-----9--9----9-------------------------------------------|
G|------------------------------9-7-7-5-454---5--54575779-10-9-7---0------|
B|------------------------------------------7--------------------5--------|
E|------------------------------------------------------------------------|

E|------------------------------------------------------------------------|
A|------------------------------------------------------------------------|
D|----------2-3-5--353-2--0---0-2-0---------------------------------------|
G|--0-2-4-5-----------------4--------4-1-0--------------------------------|
B|------------------------------------------------------------------------|
E|------------------------------------------------------------------------|

E|------------------------------------------------------------------------|
A|------------------------------------------------------------------------|
D|------------------------------------------------------------------------|
G|-0-1-3-1-0-----------0--------------------------------------------------|
B|-----------3-1-0-1-3---3-1-0--------------------------------------------|
E|-----------------------------3-2-3--------------------------------------|




E|------------------------------------------------------------------------|
A|------------------------------------------------------------------------|
D|-----------------12---------10------------------------------------------|
G|-------------------------12--------10-----------------------------------|
B|--10-12-13-12-10------10--------10--------------------------------------|
E|------------------------------------------------------------------------|

E|------------------------------------------------------6-----------------|
A|-----10-8------8----------6--8----6--------10-8-----8---8/10-11---------|
D|-/10-------8-7----10/12--------8----7---10------8-7-------------12-10-12|
G|------------------------------------------------------------------------|
B|------------------------------------------------------------------------|
E|------------------------------------------------------------------------|

E|------3--------3--------------------------------------------------------|
A|----3---3-6/8---3-6---3-------------------6-----------------------------|
D|--5-----------------5---3-------------5/7-------------------------------|
G|--------------------------5-3---3---------------------------------------|
B|------------------------------5-----------------------------------------|
E|------------------------------------------------------------------------|

E|--------56-6-5--3----------3--------------------------------------------|
A|--6/8-8-----------6\3----3-----6---3------------------------------------|
D|-----------------------5---------5---5-3-5------------------------------|
G|------------------------------------------------------------------------|
B|------------------------------------------------------------------------|
E|------------------------------------------------------------------------|

E|----------6---8----10----------8-----------6--------3-------------------|
A|------6-8---8---8-----11---------10----------8--------3------3----------|
D|--5/7--------------------12---------10---------7--------3------3--------|
G|----------------------------12---------10--------8--------5------5------|
B|-------------------------------------------------------------------5----|
E|------------------------------------------------------------------------|

E|-------------------------------------------------8-10-------------------|
A|-----------------------------------------8-10-11------------------------|
D|--2-------------------------------7-8-10--------------------------------|
G|----3--------3---------3-5-7-8-10---------------------------------------|
B|------3--------3-3-5-6--------------------------------------------------|
E|------------------------------------------------------------------------|

E|------------------------------------------------------------------------|
A|------------------------------------------------------------------------|
D|------------------------------------------------------------------------|
G|------------------------------------------------------------------------|
B|------------------------------------------------------------------------|
E|------------------------------------------------------------------------|

Добавлено: 29.09.2013
Другие материалы по этой песне:
  • Аккорды и текст

Страница создана 28.09.2013
http://primanota.ru/alan-parsons-project/paseo-de-gracia-chords.htm
Привет, Гость.
Предлагаем пройти революционный курс по гитаре.
Подарок от PrimaNota.Ru, забирай!